Cifras Web
Chrono Cross

Time Scar

Chrono Cross

38 acessos

(violão 1)


E |--------------------------------------------------
B |--------------3--------3---------------3--------3-
G |-----------0--------0---------------0--------0----
D |--------4--------4---------------4--------4-------
A |-----2------------------------2-------------------
E |--0------------------------0----------------------



E |---------------------------------------0
B |--------------3--------3----------------
G |-----------0--------0---------------0---
D |--------4--------4---------------4------
A |-----2------------------------2---------
E |--0------------------------0------------



E |--------------------------------------------------
B |--------------3--------3---------------3--------3-
G |-----------0--------0---------------0--------0----
D |--------4--------4---------------4--------4-------
A |-----2------------------------2-------------------
E |--0------------------------0----------------------



E |--------------0------------------------0---------
B |-----------3-----------3------------3------------
G |--------0-----------0------------0-----------0---
D |-----4-----------4------------4-----------4-----4
A |--3------------------------3---------------------
E |-------------------------------------------------



E |---------------------------------------2-0--------
B |--------------3--------3------------3------3------
G |-----------0--------0------------0-----------0----
D |--------4--------4------------4-----------------0-
A |-----2--------------------------------------------
E |--0------------------------0----------------------



E |--------------0-----0------------------0-----0---
B |--------------0-----0------------------0-----0---
G |-----------2------------------------2------------
D |--------3--------3-----3---------3--------3-----3
A |-----3------------------------3------------------
E |--1------------------------1---------------------



E |---------------------------------------2-0---------------------2----------
B |--------------3--------3------------3------3--------------3----3-----3----
G |-----------0--------0------------0-----------0---------------0-2--2-----2-
D |--------4--------4------------4-----------------0------0------------------
A |-----2--------------------------------------------------------------------
E |--0------------------------0------------------------3---------------------



E |--0------------------------------------2---------
B |-----------0--1------------0--------3--------3---
G |--------0-----------0------------0--------2-----2
D |-----2-----------2-----2------0--------0---------
A |--------------3----------------------------------
E |--0------------------------3---------------------



E |-----------------------
B |--5--3--5--------------
G |-------------------7---
D |----------------------5
A |-----------------------
E |-----------------------



E |------------------------------------------------
B |------------------------------------------------
G |------------------------------------------------
D |------2----0------2----0------2----0--------0--2
A |---------2-----------2-----------2-------2------
E |--0-----------0-----------0-----------0---------



E |------------------------------------------------
B |------------------------------------------------
G |-----------------------------------------0-----2
D |------2----0------2----0------2----0------------
A |---------2-----------2-----------2--------------
E |--0-----------0-----------0-----------0-----0---



E |------------------------------------------------
B |------------------------------------------------
G |------------------------------------------------
D |------2----0------2----0------2----0--------0--2
A |---------2-----------2-----------2-------2------
E |--0-----------0-----------0-----------0---------



E |------------------------------------------------
B |------------------------------------------------
G |------------------------------------------------
D |------2----0------2----0----------2---2---------
A |---------2-----------2--------2---------2------2
E |--0-----------0-----------0---------------3-0---



E |------------------------------------------------
B |------------------------------------------------
G |------------------------------------------------
D |------2----0------2----0------2----0--------0--2
A |---------2-----------2-----------2-------2------
E |--0-----------0-----------0-----------0---------



E |------------------------------------------------
B |------------------------------------------------
G |-----------------------------------------0-----2
D |------2----0------2----0------2----0------------
A |---------2-----------2-----------2--------------
E |--0-----------0-----------0-----------0-----0---



E |------------------------------------------------
B |------------------------------------------------
G |------------------------------------------------
D |------2----0------2----0------2----0--------0--2
A |---------2-----------2-----------2-------2------
E |--0-----------0-----------0-----------0---------



E |------------------------------------------------
B |------------------------------------------------
G |------------------------------------------------
D |------2----0------2----0----------2---2---------
A |---------2-----------2--------2---------2------2
E |--0-----------0-----------0---------------3-0---



E |---------------------------------------------
B |---------------------------------------------
G |---------------------------------------------
D |-------------0-------0--2---2---0------2-----
A |--3-------3------0------------------------2--
E |------3----------------------------0--------0



E |--------------------------------------------
B |--------------------------------------------
G |--------------------------------------------
D |-------------0-------0--2---2---0-----------
A |--3-------3------0---------------------2----
E |------3----------------------------0-------0



E |--------------------------------------------
B |--------------------------------------------
G |-------------------------------------------2
D |-------------0-------0--2---2---0------2----
A |--3-------3------0--------------------------
E |------3----------------------------0--------



E |---------------------------------------------
B |---------------------------------------------
G |---------------------------------------------
D |-------------0-------0--2---2---0------2-----
A |--3-------3------0------------------------2--
E |------3----------------------------0--------0



E |------------------------------------
B |------------------------------------
G |------------------------------------
D |-----------0--------2------------0--    (3x)
A |--3---------------------------------
E |------------------------------------



E |--------------------------------------
B |--------------------------------------
G |--------------------------------------
D |------------0--------2----------------
A |--3------3----------------------------
E |--------------------------------------



E |--------------------------------------------
B |--------------------------------------------
G |--------------------------------------------
D |-------------0-------0--2---2-----------0---
A |--3-------3------0--------------2---2------2
E |------3-------------------------------------



E |--------------------------------------------
B |--------------------------------------------
G |--------------------------------------------
D |-------------0-------0--2---2---------------
A |--3-------3------0--------------2---2---2---
E |------3------------------------------------3



E |--------------------------------------------
B |--------------------------------------------
G |-------------------------------------------4
D |-------------0-------0--2---2---------------
A |--3-------3------0--------------2---2---2---
E |------3-------------------------------------



E |-------------------------
B |-------------------------
G |-------------------------
D |-------------0-------0--2
A |--3-------3------0-------
E |------3------------------


(violão 2)

E |------------------------------------
B |------------------------------------
G |------------------------------------
D |------------------------------------
A |--0----------------2----------------
E |------------------------------------



E |------------------------------------------
B |------------------------------------------
G |-------4----4----2--0-----0--2-------020--
D |--2--------------------4------------------
A |------------------------------------------
E |------------------------------------------



E |----------------------------------------
B |----------------------------------------
G |---------0------------------------------
D |--4--4----42----------------------------
A |----------------------------------------
E |----------------------------------------



E |-----------------------------------------
B |--------------------2--3--5-353--2-------
G |-------4----4----4------------------4----
D |--2--------------------------------------
A |-----------------------------------------
E |-----------------------------------------



E |----------------------------------------------
B |----------------------------------------------
G |--2--0--2--4-242--------------------2----4----
D |----------------------------------------------
A |----------------------------------------------
E |----------------------------------------------



E |----------------------------------------------
B |----------------------------------------------
G |--0-----0--------------------0----2----4------
D |-----4----------------------------------------
A |----------------------------------------------
E |----------------------------------------------



E |------------------------------------------
B |------------------------------------------
G |--0--2--------0--------0-----------4------
D |---------------------4--42------0---------
A |------------------------------------------
E |------------------------------------------



E |-----------------------------------------------------
B |-----------------------------------------------------
G |--454-2---0------------------------------------------
D |--------------4--2------------42-0--2----------------
A |-----------------------------------------------------
E |-----------------------------------------------------


(silêncio...)


E |----------------------------------------------------------------
B |----------------------------------------------------------------
G |----------------------------------------------------------------
D |----------------------------------------------------------------
A |--0-2-2-2-2-2-2-2-2-3-3-3-3-3-3-3-3-5-5-5-5-5-5-5-5-3-2-3-2-0---
E |--0-0-0-0-0-0-0-0-0-0-0-0-0-0-0-0-0-0-0-0-0-0-0-0-0-0-0-0-0-0---



E |------------------------------------------------------------------
B |------------------------------------------------------------------
G |---------------------------------------------------------------4--
D |----------------------------------------------------2-------2-----
A |--0-2-2-2-2-2-2-2-2-3-3-3-3-3-3-3-3-5-5-5-5-5-5-5-5---5-3-2-------
E |--0-0-0-0-0-0-0-0-0-0-0-0-0-0-0-0-0-0-0-0-0-0-0-0-0-0-0-0-0-------



E |---------------------------------------------
B |---------------------------------------------
G |-----2----------020----0--------------4------
D |--2-----------------4-----4--0--2------------
A |-----------------------------------2---------
E |---------------------------------------------



E |-------------------------------------------
B |----------------------3--------------------
G |-----2------020----0----------------4------
D |--2-------------4----------------2---------
A |-------------------------------------------
E |-------------------------------------------



E |------------------------------------------------------
B |------------------------------------------------------
G |-----2--------020-----0--------------4---------2------
D |--2----------------4-----4--0--2------------2---------
A |----------------------------------2-------------------
E |------------------------------------------------------



E |-----------------------------------------
B |------------3----------3--5--------------
G |--020----0-------------------------------
D |------4----------------------------------
A |-----------------------------------------
E |-----------------------------------------



E |-------------------------------------------
B |--3----------------------------------------
G |----5-4--------2--------0----------------0-
D |---------------------------------------4---
A |-------------------------------------------
E |-------------------------------------------



E |----------------------------------------
B |--3------------------5--------------3---
G |------------4-------------------------5-
D |----------------------------------------
A |----------------------------------------
E |----------------------------------------



E |------------------------------------------------------------
B |------------------------------------------------------------
G |--4--------2--------0------2-4-2---------0------------------
D |--------------------------------------4----4-2--------------
A |------------------------------------------------------------
E |------------------------------------------------------------



E |----------------------------------------------------------
B |--5--------------3----------------------------------------
G |-------------------5-4--------2--------0----------------0-
D |------------------------------------------------------4---
A |----------------------------------------------------------
E |----------------------------------------------------------



E |---------------------------------------
B |--3-----------------5--------------3---
G |-----------4-------------------------5-
D |---------------------------------------
A |---------------------------------------
E |---------------------------------------



E |------------------------------------------------------------
B |------------------------------------------------------------
G |--4--------2--------0------2-4-2---------0------------------
D |--------------------------------------4----4-2--------------
A |------------------------------------------------------------
E |------------------------------------------------------------



E |----------------------------------------------------------
B |--5--------------3----------------------------------------
G |-------------------5-4--------2--------0----------------0-
D |------------------------------------------------------4---
A |----------------------------------------------------------
E |----------------------------------------------------------



E |----------------------------------------------------
B |--3-----------------5------------3------------------
G |-----------4------------------------5--4------------
D |----------------------------------------------------
A |----------------------------------------------------
E |----------------------------------------------------


E |-------------------------------
B |-------------------------3--5--
G |--2----0------2-4-2------------
D |-------------------------------
A |-------------------------------
E |-------------------------------

TOP cifras de Chrono Cross

  1. Dream Of The Shore Near Another World
  2. Time Scar
  3. Another Guldove
  4. Main Title
  5. A Narrow Space Between Dimensions
  6. Leaving The Body
  7. Magical Dreamers
  8. Bend Of Time
  9. Lost Before Light
  10. Radical Dreamers

Pela Web