Cifras Web
Metallica

The Unforgiven II

Metallica

38 acessos

Intro 4x: Am  C  G  Em

Am     C       G
Lay beside me,
Em                   Am
Tell me what they've done,
              C             G
And speak the words I wanna hear
   Em             Am
To make my demons run.
            C          G
The door is locked now,
         Em               Am
But it's opened if you're true.
           C              G
If you can understand the me,
           Em             ( Am  C  G  Em ) (2x)
Then I can understand the you.

Am   C        G
Lay beside me,
Em            Am
Under wicked skies.
                C            G
Through back of day, dark of night,
   Em             Am
We share this paradise.
               C     G
The door cracks open,
            Em             Am
But there's no sun shining through.
            C                G
Black heart scarring darker still,
      Em              Dm
Still no sun shining through,
   F              G
No no sun shining through,
   F           Am
No no sun shining.

Refrão:
Am              G
What I've felt, what I've known,
C              E7
Turn the pages turn the stone
  Am                     G           C   E7
Behind the door should I open it for you?
Am              G
What I've felt, what I've known
C                 E7
Sick and tired I stand alone,
      Am                          G                 C
Could you be there? Cause I'm the one who waits for you.
          E7             ( Am  C  G  Em ) (2x)
Or are you unforgiven, too?

Am         C       G
Come lay beside me,
Em                Am
This won't hurt I swear.
             C                 G
She loves me not she loves me still,
           Em           Am
But she'll never love again.
          C
She lay beside me,
G          Em                Am
But she'll be there when I'm gone.
             C               G
Black heart scarring darker still,
            E7                Dm
Yeah she'll be there when I'm gone.
           F                 G
Yes she'll be there when I'm gone,
     F              Am
Dead sure she'll be there.

(Refrão)

Solo 2x: Am  C  G  Em

Am    C       G
Lay beside me,
Em                Am
Tell me what I've done.
            C                  G
The door is closed so are your eyes,
    Em            Dm
But now I see the sun,
    F         G        E7
Now I see the sun, yes now I see it.

(Refrão)

Am              G
What I've felt, what I've known,
C              E7
Turn the pages turn the stone
  Am                     G           C   E7
Behind the door should I open it for you?
Am             C G             E7
What I've felt, what I've known
Am                    C             G
I take this key and I bury it in you
               E7
Because you're unforgiven too.
Am     G         C
Never me never me
               D                  G
Because you're unforgiven too.
Intro:

E|---------------------------------------------------------
B|---------------------------------------------------------
G|---------------------------------------------------------
D|--7--7/9-9/10-12--14-12-10-12/10--7/9-9/10-12--12-9/10-9-
A|--7--x-x-x-x--x---x--x--x--x-x---x-x-x--x--x---x-x--x-x--
E|--5--5/7-7/8--10--12-10-8--10/8---5/7-7/8--10--10-7/8-7--



E|----------------------
B|----------------------
G|----------------------
D|--2---5------5-----2--
A|--0---3------5-----2--
E|-------------3-----0--


Verso:

E|---------0---------------------3-3--------------------
B|----------1----------------0h1-3-3--3/5/3-1-0---1/3/1-
G|------2-----------------0-----------------------2/4/2-
D|----2-----------------2-------------------------------
A|--0------------0-2-3----------------------------------
E|-----------------------------------3----------0-------

"Lay beside me, tell me what they've done"


E|-------1--------------------------------0--
B|--------3-------------------------------1--
G|-----2----2----0----------0-------0-----2--
D|---0-------------3------0-----------3---2--
A|--------------3-------2---------3-------0--
E|------------1-------3---------1------------


Ponte:
"But there's no sun shining through."

E|------------------------------------------
B|--0--------------------------------------0
G|--4--5-5--5---4-4--4--7-7--7-7-7--5-5-5--4
D|--7--7-7--7---5-5--5--5-5--5-5-5--5-5-5--5
A|--7--7-7--7---2-2--2----------------------
E|------------------------------------------



E|---------------------------------------------
B|--0------------------------------------------
G|--4--5-5--5---4-4--4--7-7--7-7-7--7-5-4-5-4--
D|--7--7-7--7---5-5--5--5-5--5-5-5------------7
A|--7--7-7--7---2-2--2-------------------------
E|---------------------------------------------

"What I've felt, what I've known"


E|------------------------------------
B|------------------------------------
G|------2--------5-----------------9--
D|----2---2----5---5------5------9---9
A|--0--------3----------5---5--7------
E|--------------------3---------------



E|------------------------------------
B|------------------------------------
G|--4-2-4-2--7-5-7-5-----------9-7-9-7
D|--------------------7-5-7-5---------
A|------------------------------------
E|------------------------------------

"Come lay beside me" (Segundo verso)
Tocado com echo e chorus.

Solo:               full          full    full   full   full

E|---------------------------------------------15-----15-----15--15-|
B|-----------------------12--15--12----12--15-----15------15--------|
G|--7-5h7p5-4-5------/14------------14------------------------------|
D|--------------5---------------------------------------------------|
A|------------------------------------------------------------------|
E|------------------------------------------------------------------|

             full            full            full

E|-----17--------------17--------------17---------17---------|
B|-/17----17--20---/17----17--20---/17----17--20-----20--17--|
G|-----------------------------------------------------------|
D|-----------------------------------------------------------|
A|-----------------------------------------------------------|
E|-----------------------------------------------------------|



E|-------------------------------------------------------------------------|
B|-------------------19-17----19-17----19-17----19-17----19-17----19-17----|
G|-19--17--19--17----19-17----19-17----19-17----19-17----19-17----19-17----|
D|----------------19-------19-------19-------19-------19-------19-------19-|
A|-------------------------------------------------------------------------|
E|-------------------------------------------------------------------------|



E|--------------------------------------------|
B|-17----------------------19-17--------------|
G|----20-17-19-17-19-17----19-17--------------|
D|----------------------19-------19-----------|
A|--------------------------------------------|
E|--------------------------------------------|



(Refrão 2x)

TOP cifras de Metallica

  1. The Unforgiven
  2. Nothing Else Matters
  3. To live is to die
  4. The Ecstasy Of Gold
  5. The Unforgiven II
  6. Ecstasy of Gold
  7. The Memory Remains
  8. Master Of Puppets
  9. Ronnie
  10. Fade To Black

Pela Web