Cifras Web
Sword

Iron Swan Intro

Sword

4 acessos

This is the first part of the song untill 1:30 into the song. 

Standard Tuning (as far as i can tell) 
/=slide
e--------------------| 
b-5--6--5---8-6-5-3/5| 
g--------------------| 
d--------------------|
a--------------------| 
E--------------------| 

e--------------------|  
b-5--6--5---3-5-5/6-5| 
g--------------------| 
d--------------------|
a--------------------| 
E--------------------| 

e----------------------| 
b-5--6--5---8-6-5-6-5-3| 
g----------------------| 
d----------------------| 
a----------------------| 
E----------------------| 

e----------------------|
b-5--6--5--3-1-3-1-----| 
g------------------3/5-|
d----------------------| 
a----------------------| 
E----------------------| 

e----------------------|
b----------------------|
g-2--3--2--0-2-3-2--0--| 
d----------------------| 
a----------------------| 
E----------------------| 

e----------------------| 
b----------------------| 
g-2--3--2--0-2--3--2---| 
d----------------------| 
a----------------------|
E----------------------|

e-----------------------|
b-----------------------|
g-2--3--2--0-2-3-3/5-3-2| 
d-----------------------| 
a-----------------------| 
E-----------------------| 

e------------------------|
b------------------------| 
g-2--3--2-3/5-3-5-5/7-5-7| 
d------------------------| 
a------------------------| 
E------------------------| 

e------------------------|
b-5--6--5--8-6-5-3/5-----|
g------------------------|
d------------------------|
a------------------------| 
E------------------------| 

e------------------------| 
b-5--6--5--3-5-5/6--5----|
g------------------------|
d------------------------|
a------------------------|
E------------------------| 

e------------------------|
b-5--6--5--7-6-5-6-5-3---|
g------------------------|
d------------------------|
a------------------------|
E------------------------| 


e------------------------|
b-5--6--5-6-5-6/7--------|
g------------------------|
d------------------------|
a------------------------|
E------------------------


there we go. i know the first chords, they are Bb and C power chords. 
But that is all i have. 
Travis

TOP cifras de Sword

  1. Dare To Spit
  2. Follow The Wheel
  3. Freya
  4. Iron Swan
  5. Winter Wolves
  6. Winters Wolves
  7. Winters Wolves Intro
  8. Baraels Blade
  9. Outta Control
  10. Celestial Crown

Pela Web