Cifras Web
A Skylit Drive

All Stars Diaries

A Skylit Drive

15 acessos

THIS SONG ITS EASY, DROP D AND PLAY

INTRO
SCARED....

|---------12-12-12--------14-14-14---------12-12-12---------14-14-14---|
|------10--------------10---------------10---------------10------------|
|-9-11------------9-11-------------9-11-------------9-11---------------|
|----------------------------------------------------------------------|
|----------------------------------------------------------------------|
|----------------------------------------------------------------------|



|----------12-------14-12----14-12---------|
|----10-------10----------10-------10------|
|-11----11-------11------------------------|
|------------------------------------------|
|------------------------------------------|
|------------------------------------------|



|-----------------12-12-12-14-12-----12-----------------12-12-12-14-12----12-----|
|---------10-10-10--------------10--------------10-10-10--------------10---------|
|-11-11-11-------------------------11---11-11-11------------------------11-------|
|--------------------------------------------------------------------------------|
|--------------------------------------------------------------------------------|
|--------------------------------------------------------------------------------|



|----------12-------14-14-14-14-14-12-12-12-12-12-----|
|----10-------10--------------------------------------|
|-11----11-------11-----------------------------------|
|-----------------------------------------------------|
|-----------------------------------------------------|
|-----------------------------------------------------|


VERSE
I... AM...

|---------------10------------------------------------|
|-12---12---10----10---6--7--4------6--7--4-4-4-4-----|
|-X----X----X-------7--X--X--X------X--X--X-X-X-X-----|
|-9----9----7----------4--5--2------4--5--2-2-2-2-----|
|-----------------------------------------------------|
|-----------------------------------------------------|


WHEN.. WILL..

|----------------------------------------------------------------|
|----------------------------------------------------------------|
|-------7-9-7-6-6--------7-9-7-6-6-6-6-7/-4----6--7--4-4-4-4-----|
|----7-9--------------7-9-----------------X----X--X--X-X-X-X-----|
|-7-9--------------7-9--------------------2----4--5--2-2-2-2-----|
|----------------------------------------------------------------|


SING A SONG...
|-----------------------------------------------------------------| /
|-----------------------------------------------------------------| /
|-4--4-4-4-4-4-4--4--4-4--4-4-------------------------------------| /
|-4--4-4-4-4-4-4--4--4-4--4-4-5--5-5-5-5-5-5-5-5-5-5-5-5----------| / [x4]
|-2--2-2-2-2-2-2--2--2-2--2-2-5--5-5-5-5-5-5-5-5-5-5-5-5----------| /
|-----------------------------3--3-3-3-3-3-3-3-3-3-3-3-3----------| / 
     . . . . . .     . .         . . . . . .   .   .                /


WANTING MORE...          EMBRACE YOUR...

|---------12---14---12---------14---12---14-14-14-14---------|
|------10-------------------10-------------------------------|
|-9-11-----------------9-11----------------------------------|
|------------------------------------------------------------|
|------------------------------------------------------------|
|------------------------------------------------------------|



|---------12---14---12---------14---12---14////--------------|
|------10-------------------10-------------------------------|
|-9-11-----------------9-11----------------------------------|
|------------------------------------------------------------|
|------------------------------------------------------------|
|------------------------------------------------------------|


HAVE A SEAT...

|-14----12-----14----12------12--------------------|
|----------15-----------14-------15/---10----------|
|--------------------------------------------------|
|--------------------------------------------------|
|--------------------------------------------------|
|--------------------------------------------------|


I'M NOT LEAVING...
|-----------------------------------------------------------------| /
|-----------------------------------------------------------------| /
|-4--4-4-4-4-4-4--4--4-4--4-4-------------------------------------| /
|-4--4-4-4-4-4-4--4--4-4--4-4-5--5-5-5-5-5-5-5-5-5-5-5-5----------| / [x2]
|-2--2-2-2-2-2-2--2--2-2--2-2-5--5-5-5-5-5-5-5-5-5-5-5-5----------| /
|-----------------------------3--3-3-3-3-3-3-3-3-3-3-3-3----------| / 
     . . . . . .     . .         . . . . . .   .   .                /


CHORUS
WHY YOU SOO....

|---------12-12-12--------14-14-14---------12-12-12---------14-14-14---|
|------10--------------10---------------10---------------10------------|
|-9-11------------9-11-------------9-11-------------9-11---------------|
|----------------------------------------------------------------------|
|----------------------------------------------------------------------|
|----------------------------------------------------------------------|



|----------12-------14-12----14-12---------|
|----10-------10----------10-------10------|
|-11----11-------11------------------------|
|------------------------------------------|
|------------------------------------------|
|------------------------------------------|



|-----------------12-12-12-14-12-----12-----------------12-12-12-14-12----12-----|
|---------10-10-10--------------10--------------10-10-10--------------10---------|
|-11-11-11-------------------------11---11-11-11------------------------11-------|
|--------------------------------------------------------------------------------|
|--------------------------------------------------------------------------------|
|--------------------------------------------------------------------------------|



|----------12-------14-14-14-14-14-12-12-12-12-12-----|
|----10-------10--------------------------------------|
|-11----11-------11-----------------------------------|
|-----------------------------------------------------|
|-----------------------------------------------------|
|-----------------------------------------------------|



VERSE
I... AM...

|---------------10------------------------------------|
|-12---12---10----10---6--7--4------6--7--4-4-4-4-----|
|-X----X----X-------7--X--X--X------X--X--X-X-X-X-----|
|-9----9----7----------4--5--2------4--5--2-2-2-2-----|
|-----------------------------------------------------|
|-----------------------------------------------------|


WHEN.. WILL..

|----------------------------------------------------------------|
|----------------------------------------------------------------|
|-------7-9-7-6-6--------7-9-7-6-6-6-6-7/-4----6--7--4-4-4-4-----|
|----7-9--------------7-9-----------------X----X--X--X-X-X-X-----|
|-7-9--------------7-9--------------------2----4--5--2-2-2-2-----|
|----------------------------------------------------------------|



WITH YOUR HANDS...

|-14----12-----14----12------12--------------------|
|----------15-----------14-------15/---10----------|
|--------------------------------------------------|
|--------------------------------------------------|
|--------------------------------------------------|
|--------------------------------------------------|


SECRET PASSAGE.....
|-----------------------------------------------------------------| /
|-----------------------------------------------------------------| /
|-4--4-4-4-4-4-4--4--4-4--4-4-------------------------------------| /
|-4--4-4-4-4-4-4--4--4-4--4-4-5--5-5-5-5-5-5-5-5-5-5-5-5----------| / [x2]
|-2--2-2-2-2-2-2--2--2-2--2-2-5--5-5-5-5-5-5-5-5-5-5-5-5----------| /
|-----------------------------3--3-3-3-3-3-3-3-3-3-3-3-3----------| / 
     . . . . . .     . .         . . . . . .   .   .                /


CHORUS
WHY YOU SOO....

|---------12-12-12--------14-14-14---------12-12-12---------14-14-14---|
|------10--------------10---------------10---------------10------------|
|-9-11------------9-11-------------9-11-------------9-11---------------|
|----------------------------------------------------------------------|
|----------------------------------------------------------------------|
|----------------------------------------------------------------------|



|----------12-------14-12----14-12---------|
|----10-------10----------10-------10------|
|-11----11-------11------------------------|
|------------------------------------------|
|------------------------------------------|
|------------------------------------------|



|-----------------12-12-12-14-12-----12-----------------12-12-12-14-12----12-----|
|---------10-10-10--------------10--------------10-10-10--------------10---------|
|-11-11-11-------------------------11---11-11-11------------------------11-------|
|--------------------------------------------------------------------------------|
|--------------------------------------------------------------------------------|
|--------------------------------------------------------------------------------|



|----------12-------14-14-14-14-14-12-12-12-12-12-----|
|----10-------10--------------------------------------|
|-11----11-------11-----------------------------------|
|-----------------------------------------------------|
|-----------------------------------------------------|
|-----------------------------------------------------|



HANDS AT MY....

|--------------------10---10---------------------10---10------|
|----------------------7---------------------------7----------|
|--4--------7//---------7-------4---------7//-------7---------|
|--4--------7//-----------------4---------7//-----------------|
|--2--------5//-----------------2---------5//-----------------|
|-------------------------------------------------------------|


THIS IS MY LIFE...

|-----------------------------------------------------|
|-----------------------------------------------------|
|-4-4-4-4-4---4------7//-----------------7-9-7-6------|
|-4-4-4-4-4---4------7//--5-5-5-5-5--5---X-X-X-X------|
|-2-2-2-2-2---2------5//--5-5-5-5-5--5---5-7-5-4------|
|-------------------------3-3-3-3-3--3----------------|

  . . . . .               . . . . . 

THIS IS MY LIFE...

|-----------------------------------------------------|
|-----------------------------------------------------|
|-4-4-4-4-4---4------7//------------------------------|
|-4-4-4-4-4---4------7//--5-5-5-5-5--5------5---------|
|-2-2-2-2-2---2------5//--5-5-5-5-5--5------5---------|
|-------------------------3-3-3-3-3--3------3---------|

  . . . . .               . . . . .

OUTHRO
WHY YOU SOO....

|---------12-12-12--------14-14-14---------12-12-12---------14-14-14--14--|
|------10--------------10---------------10---------------10---------------|
|-9-11------------9-11-------------9-11-------------9-11------------------|
|-------------------------------------------------------------------------|
|-------------------------------------------------------------------------|
|-------------------------------------------------------------------------|




END, CHECK TE VIDEO

http://*?v=FdR9G6xGVVw

THANX FREAKY WI ^^

TOP cifras de A Skylit Drive

  1. 238
  2. All Stars Diaries
  3. All Star Diaries
  4. Ability To Create A War
  5. According To Colombus
  6. I Swear This Place Is Haunted
  7. Past The Love The Memories
  8. Acording To Columbus Intro
  9. A Reason For Broken Wings
  10. According To Columbus

Pela Web