Cifras Web
Alesana

Beautiful In Blue

Alesana

10 acessos

I LOVE THIS SONG GUYS, ITS VERY FREAKY HELL YEAHH!!! AND THIS IS THE TAB ^_^ IN D#

INTRO
SILENCE SCREAMS....
|--------------------------------------------------------------------|
|--------------------------------------------------------------------|
|-8--8--8--8--8--8--8--8--8--8--8--8--8--8--8--8--8--8--8--8--8--8---| 
|-10-10-10-10-10-10-10-10-10-10-10-10-10-10-10-10-10-10-10-10-10-10--| [x2] 
|--------------------------------------------------------------------|
|--------------------------------------------------------------------|
  .  .  .  .  .  .  .  .  .  .  .  . 

|--------------------------------------------------------------------|
|-------------------------------------11-11-11-11-11-11-11-11-11-11--|
|-8--8--8--8--8--8--8--8--8--8--8--8--8--8--8--8--8--8--8--8--8--8---| 
|-10-10-10-10-10-10-10-10-10-10-10-10-10-10-10-10-10-10-10-10-10-10--|  
|--------------------------------------------------------------------|
|--------------------------------------------------------------------|
  .  .  .  .  .  .  .  .  .  .  .  . 

ESCAPE!!  YOUR UNDYING EYES

|-------------------------|
|-------------------------|
|-------------------------|
|--8-8-8-8-8-8-8-8-8-8----|
|--8-8-8-8-8-8-8-8-8-8----|
|--6-6-6-6-6-6-6-6-6-6----|


VERSE
ARE YOU, BLIND TO MYY....

|----------------------------------------------------------------------|
|----------------------------------------------------------------------|
|------------------------------12-10-----------------------------------|
|--10-10-10-10-10--8-8-8-8-8---X--X---6-6-6-6-6--8-8-8-8-8-8-8-8-8-8---|
|--10-10-10-10-10--8-8-8-8-8---10-8---6-6-6-6-6--8-8-8-8-8-8-8-8-8-8---|
|--8--8--8--8--8---6-6-6-6-6----------4-4-4-4-4--6-6-6-6-6-6-6-6-6-6---|


THIS WILL ALL BE....

|---------------------------------------------------------------------|
|---------------------------------------------------------------------|
|----------10--------------10--------------10--------------10---------|
|--10-12-13--13-12-10-12-13--13-12-10-12-13--13-12-10-12-13--13-12----|
|---------------------------------------------------------------------|
|---------------------------------------------------------------------|

    .  .  .   .  .  .  .  .   .  .  .  .  .   .  .  .  .  .   .  .


|--------------------------------------------|
|--------------------------------------------|
|--------------------10-10--------8-8--------|
|--8-8--8-8-8--8-8---X--X---6-6---X-X--------|
|--8-8--8-8-8--8-8---8--8---6-6---6-6--------|
|--6-6--6-6-6--6-6----------4-4--------------|

               . .          . .


|---------------------------------------------------------------------|
|---------------------------------------------------------------------|
|----------8--------------8--------------8--------------8-------------|
|--8-10-11--11-10-8-10-11--11-10-8-10-11--11-10-8-10-11--11-10--------|
|---------------------------------------------------------------------|
|---------------------------------------------------------------------|

   .  .  .   .  . .  .  .   .  . .  .  .   .  . .  .  .   .  .


|--------------------------------|
|--------------------------------|
|--------------------10-10-------|
|--8-8--8-8-8--8-8---X--X----5---|
|--8-8--8-8-8--8-8---8--8----5---|
|--6-6--6-6-6--6-6-----------3---|

               . .    

CHORUS
FAR AWAAY .....

|--------------------------------------------------------------------------|
|--------------------------------------------------------------------------|
|-5-0-7-0-8-0-7-0-5-0-3-0-5/7---5-0-7-0-8-0-7-0-5-0-3-0-5/7----------------|
|------------------------------------------------------------8---8---8--8--|
|------------------------------------------------------------8---8---8--8--|
|------------------------------------------------------------6---6---6--6--|



|----------------------------------------------------------------------------------------------|
|---------------------------------------------------------------------11------11--------11-----|
|-5-0-7-0-8-0-7-0-5-0-3-0-5-0-7-0-5-0-7-0-8-0-10/12-----8-0-12-0------10---10---10---10---10--|
|----------------------------------------------------------------8----8---8---------8----------|
|----------------------------------------------------------------------------------------------|
|----------------------------------------------------------------------------------------------|

  
|---------------------------------------------|
|---------------------------------------------|
|--------5-7-------7-8------8-10------10-12---|
|--10-10-----10-10------8-8-------6-6---------|
|--10-10-----10-10------8-8-------6-6---------|
|--8--8------8--8-------6-6-------4-4---------|  
   .  .      .  .       . .       . .

VESRE
DROWN ALL OF YOUR...

|---------------------------------------------------------------------|
|---------------------------------------------------------------------|
|----------10--------------10--------------10--------------10---------|
|--10-12-13--13-12-10-12-13--13-12-10-12-13--13-12-10-12-13--13-12----|
|---------------------------------------------------------------------|
|---------------------------------------------------------------------|

    .  .  .   .  .  .  .  .   .  .  .  .  .   .  .  .  .  .   .  .


|--------------------------------------------|
|--------------------------------------------|
|--------------------10-10--------8-8--------|
|--8-8--8-8-8--8-8---X--X---6-6---X-X--------|
|--8-8--8-8-8--8-8---8--8---6-6---6-6--------|
|--6-6--6-6-6--6-6----------4-4--------------|

               . .          . .


|---------------------------------------------------------------------|
|---------------------------------------------------------------------|
|----------8--------------8--------------8--------------8-------------|
|--8-10-11--11-10-8-10-11--11-10-8-10-11--11-10-8-10-11--11-10--------|
|---------------------------------------------------------------------|
|---------------------------------------------------------------------|

   .  .  .   .  . .  .  .   .  . .  .  .   .  . .  .  .   .  .


|--------------------------------------------|
|--------------------------------------------|
|--------------------10-10--------8-8--------|
|--8-8--8-8-8--8-8---X--X---6-6---X-X--------|
|--8-8--8-8-8--8-8---8--8---6-6---6-6--------|
|--6-6--6-6-6--6-6----------4-4--------------|

               . .          . .

REGAIL ME WITH YPUR TALES OF.....

|------------------------------------------------------|
|------------------------------------------------------|
|---------------8-8-7-8-7---------------8-8-7-8-7------|
|--10-10-10-10--X-X-X-X-X--10-10-10-10--X-X-X-X-X------|
|--10-10-10-10--6-6-5-6-5--10-10-10-10--6-6-5-6-5------|
|--8--8--8--8--------------8--8--8--8------------------|



|------------------------------------------------------|
|------------------------------------------------------|
|-----------8-8-7-8-7------------8-8-7-8-7-------------|
|--8-8-8-8--X-X-X-X-X--8-8-8-8---X-X-X-X-X-------------|
|--8-8-8-8--6-6-5-6-5--8-8-8-8---6-6-5-6-5-------------|
|--6-6-6-6-------------6-6-6-6-------------------------|



|------------------------------------------------------|
|------------------------------------------------------|
|-----------8-8-7-8-7------------8-8-7-8-7-------------|
|--6-6-6-6--8-8-7-8-7--6-6-6-6---8-8-7-8-7-------------|
|--6-6-6-6--6-6-5-6-5--6-6-6-6---6-6-5-6-5-------------|
|--4-4-4-4-------------4-4-4-4-------------------------|



|---------------------------------------------|
|---------------------------------------------|
|---------------------------------------------|
|--8-8-8-8-8-8-8-8-8-8--8--8--8---------------|
|--8-8-8-8-8-8-8-8-8-8--8--8--8---------------|
|--6-6-6-6-6-6-6-6-6-6--6--6--6---------------|


CHORUS
FAR AWAAY .....

|--------------------------------------------------------------------------|
|--------------------------------------------------------------------------|
|-5-0-7-0-8-0-7-0-5-0-3-0-5/7---5-0-7-0-8-0-7-0-5-0-3-0-5/7----------------|
|------------------------------------------------------------8---8---8--8--|
|------------------------------------------------------------8---8---8--8--|
|------------------------------------------------------------6---6---6--6--|



|----------------------------------------------------------------------------------------------|
|---------------------------------------------------------------------11------11--------11-----|
|-5-0-7-0-8-0-7-0-5-0-3-0-5-0-7-0-5-0-7-0-8-0-10/12-----8-0-12-0------10---10---10---10---10--|
|----------------------------------------------------------------8----8---8---------8----------|
|----------------------------------------------------------------------------------------------|
|----------------------------------------------------------------------------------------------|

  
|----------------------------------------------------------------------|
|----------------------------------------------------------------------|
|--------5-7-------7-8------8-10-------8-0-7-0-8-0-7---8-0-7-0-8-0-7---|
|--10-10-----10-10------8-8-------6-6----------------------------------|
|--10-10-----10-10------8-8-------6-6----------------------------------|
|--8--8------8--8-------6-6-------4-4----------------------------------|  
   .  .      .  .       . .       . .

BRIDGE

|----------------------------------------------------------------------------|
|-------8-9///----11-11-9-8------11-11-9-8------11-11-9-8-------11-11-9-8-9--|
|--8-10--------7-8--8------8-8-10--8------8-10-8--8-------8-8-10--8----------|
|----------------------------------------------------------------------------|
|----------------------------------------------------------------------------|
|----------------------------------------------------------------------------|


(GUITAR CLEAN)

|-------------------------------------------------------------------------|
|--11--8-9-11-9-8-9-11---8-9-11-9-8-9-11--8-9-11-9-8-9-11---8-9-11----11--|
|----8----------------10----------------8----------------10-----------10--|
|---------------------------------------------------------------------8---|
|-------------------------------------------------------------------------|
|-------------------------------------------------------------------------|


TREACHEROUS INK...

|----------------------------------|
|----------------------------------|
|----------------------------------|
|--5-5--5-5-5-5--5-5-5-5--5-5-5----| [x4]
|--5-5--5-5-5-5--5-5-5-5--5-5-5----|
|--3-3--3-3-3-3--3-3-3-3--3-3-3----|


CHORUS
FAR AWAAY .....

|--------------------------------------------------------------------------|
|--------------------------------------------------------------------------|
|-5-0-7-0-8-0-7-0-5-0-3-0-5/7---5-0-7-0-8-0-7-0-5-0-3-0-5/7----------------|
|------------------------------------------------------------8---8---8--8--|
|------------------------------------------------------------8---8---8--8--|
|------------------------------------------------------------6---6---6--6--|



|----------------------------------------------------------------------------------------------|
|---------------------------------------------------------------------11------11--------11-----|
|-5-0-7-0-8-0-7-0-5-0-3-0-5-0-7-0-5-0-7-0-8-0-10/12-----8-0-12-0------10---10---10---10---10--|
|----------------------------------------------------------------8----8---8---------8----------|
|----------------------------------------------------------------------------------------------|
|----------------------------------------------------------------------------------------------|


FAR AWAAY .....

|-----------------------------------------------------------------|
|-----------------------------------------------------------------|
|-5-0-7-0-8-0-7-0-5-0-3-0-5/7---5-0-7-0-8-0-7-0-5-0-3-0-5/7-------|
|------------------------------------------------------------8----|
|------------------------------------------------------------8----|
|------------------------------------------------------------6----|


OUTRO
SEAS CRY OUT...

|------------------------------------------------------|
|------------------------------------------------------|
|------------------------------------------------------|
|--8--8--8-8-8-8---6--6--6-6-6-6--8--8--8--8-8-8-8-----|
|--8--8--8-8-8-8---6--6--6-6-6-6--8--8--8--8-8-8-8-----|
|--6--6--6-6-6-6---4--4--4-4-4-4--6--6--6--6-6-6-6-----|

  

     NOW FADES    INTO     THE BLUE!!
|------------------------------------|
|-----------------------------9------|
|--------5-7-------7-8----------12---|
|--10-10-----10-10------10-10--------|
|--10-10-----10-10------10-10--------|
|--8--8------8--8-------8--8---------|  
   .  .      .  .       . .       


AND THATS THE END, I THINK THIS TAB IS PERFECT OR NOT?

WELL CHECK HOW DOES THE TAB SOUNDS AT

http://*?v=k71O-I9-TSs

THANX   FREAKY WI ^_^!!!!!

TOP cifras de Alesana

  1. Annabel
  2. As You Wish
  3. Sweetheart You Are Sadly Mistaken
  4. And They Call This Tragedy Intro
  5. All Night Dance Parties In The Undeground
  6. Circle Vii: Sins Of The Lion
  7. Goodbye Good Night For Good
  8. The Lover
  9. Ambrosia
  10. Apology Intro

Pela Web