Cifras Web
Amber Pacific

Save Me From Me Acoustic

Amber Pacific

10 acessos

Tabbed: fydishu911
Tunning: drop D  low to high (DADGBE)

Key:
/: slide up
\: slide down
x: scratch
h: hammer
p: pull off
~: sustain note

intro
Gtr 1
|-----5-|
|-3-----| 4x
|---4---|

Intro Chorus
Gtr 1&2

|--------------------------------------------------|
|--------------------------------------------------| 1x
|-1010101010101010-66666666-88888888-10101010-8888-|
|-8-8-8-8-8-8-8-8--44444444-66666666-8-8-8-8--6666-|
|-8-8-8-8-8-8-8-8--44444444-66666666-8-8-8-8--6666-|
|-8-8-8-8-8-8-8-8--44444444-66666666-8-8-8-8--6666-|


Versus 1
Gtr 1&2

|-------------------------------------------------------------------|
|-------------------------------------------------------------------| 2x
|-1010101010xxx1010101010-66666xxx66666-66666xxx66666-88888xxx88888-|
|-8-8-8-8-8-xxx8-8-8-8-8--44444xxx44444-66666xxx66666-66666xxx66666-|
|-8-8-8-8-8-xxx8-8-8-8-8--44444xxx44444-44444xxx44444-66666xxx66666-|
|-8-8-8-8-8-xxx8-8-8-8-8--44444xxx44444---------------66666xxx66666-|


Second Intro
Then Gtr 1 play intro and Gtr 2 play
|-----|
|-----|
|-6---|
|-4---|
|-4---|
|-4---|
As many times as needed

Chorus 2
Chorus Gtr 1 plays this instead

|-------------------------------------------------------|
|-------------------------------------------------------|
|-1010101010101010-1111111111111111\10\8888888-66666666-|
|-------------------------------------------------------|
|-8-8-8-8-8-8-8-8--9-9-9-9-9-9-9-9-\8-\6666666-44444444-|
|-------------------------------------------------------|


And repeat Intro Chorus twice

Post-Chorus
Then Gtr 1 plays
|---------------|
|---------------|2x
|-1010/11\8\66--|
|---------------|
|-8-8-/9-\6\44--|
|---------------|

While Gtr 2 plays
|------|
|------|
|-6----|
|-6----|
|-4----|
|------|
As many times as needed

Versus 2, but Gtr 1 plays

|-------------------------|
|-------------------------| 2x
|---6-5-6---6-5-6---8-6-5-|
|--6-6-6---6-6-6---6-6-6--|
|-8-------9-------6-------|
|-------------------------|


Play second intro again

Play Chorus 2

Bridge 1

|---------------------------------------------|
|---------------------------------------------|
|-66666666-88888888-1010101010101010-66666666-|
|-44444444-66666666-8-8-8-8-8-8-8-8--66666666-|
|-44444444-66666666-8-8-8-8-8-8-8-8--44444444-|
|-44444444-66666666-8-8-8-8-8-8-8-8-----------|


Repeat twice, except on second time hold out the 88810 chord and doesn't play the 466 chord

Then while Gtr 1 repeats Intro Chorus Gtr 2 plays

|---------------------------------------------|
|---------------------------------------------|
|-10~~~~~~~-6~~~~~~~-8~~~~~~~-10101010-8888---|
|-8-~~~~~~~-4~~~~~~~-6~~~~~~~-8-8-8-8--6666---|
|-8-~~~~~~~-4~~~~~~~-6~~~~~~~-8-8-8-8--6666---|
|-8-~~~~~~~-4~~~~~~~-6~~~~~~~-8-8-8-8--6666---|


Then cool little interlude
Gtr 1&2

|---------------------------------------------|
|---------------------------------------------|
|-6xx6xx6xx6xx-10xx10xx10xx10xx-6xx6xx6xx6xx--|
|-4xx4xx4xx4xx-8-xx8-xx8-xx8-xx-6xx6xx6xx6xx--|
|-4xx4xx4xx4xx-8-xx8-xx8-xx8-xx-4xx4xx4xx4xx--|
|-4xx4xx4xx4xx-8-xx8-xx8-xx8-xx---------------|


Gtr 1

|----------|
|----------|
|---6-5--x-|
|--6-6---x-|
|-8------x-|
|--------x-|


Intro Chorus 2x

Last Chorus both Gtr play

|---------------------------------------------|
|---------------------------------------------| 2x
|-66666666-66666666-88888888-1010101010101010-|
|-44444444-66666666-66666666-8-8-8-8-8-8-8-8--|
|-44444444-44444444-66666666-8-8-8-8-8-8-8-8--|
|-44444444----------66666666-8-8-8-8-8-8-8-8--|


Outro

|-----------------|
|-----------------|
|-66666666-----10-|
|-66666666----8---|
|-44444444---8----|
|-----------8-----|


Sorry if it seems chaotic, please rate :)

TOP cifras de Amber Pacific

  1. Rule 76
  2. Summer In B
  3. Everything We Were
  4. Gone So Young
  5. Thoughts Before Me
  6. Here We Stand
  7. You're Only Young Once
  8. Always You
  9. Cant Hold Back
  10. Dear This Has Always Been About Standing Up For What You Believe In Intro

Pela Web