Cifras Web
Andy Mckee

For My Father

Andy Mckee

19 acessos

(afinação C# A B E F# B)

(capo 3ª casa, a afinação fica melhor de realizar sem por muita tensão tensão nas cordas, assim não corremos o risco de estourá-las, todas as afinaçãoes devem ser feitas folgando-as)

(intro)


D|-----------0------------------0---|-------0----------------------|
A|-2/5-3-------3------------3/5-----|-5-------5------------0-2-3/5-|
G|-0-------0-----0--------0-------0-|-----0-----0--------0---------|
D|-------2---------2----2-----------|---4---------4----4-----------|
C|-----0-------------0--------------|-2-------------2--------------|
E|----------------------------------|------------------------------|



D|-------0------------------0---|-------0----------------------|
A|-3-------3------------3/5-----|-5-------5------------0-2-3/5-|
G|-----0-----0--------0-------0-|-----0-----0--------0---------|
D|---2---------2----2-----------|---4---------4----4-----------|
C|-0-------------0--------------|-2-------------2--------------|
E|------------------------------|------------------------------|



D|---0----------------|-0---------------|
A|-7-------0--------7-|-------0---------|
G|------0--------0--0-|----0---------0--|
D|------------7-----7-|-----------7-----|
C|--------------------|-----------------|
E|-0-------7--------0-|-------7---------|



D|-------------0---------------|----------------------|
A|-------3-------3---------0h2-|----3p2-0----0--------|
G|-----4---4-------4----0------|----------0---------0-|
D|---5-------5-------5---------|----------------0-----|
C|-----------------------------|-0--------------------|
E|-5---------------------------|----------------------|


(Obs2.: Os "X" na tablatura é a parte que ele usa a unha - dá uma batidinha))


D|--------------0---------------------|
A|------0-0h2-----3p2p0---0-----------|
G|---0------------------0----0--------|
D|-0----------0-----------------------|
C|----------------------------------4-|
E|--------3---------------2----X--2---|



D|----------------------------|
A|-------0-----0--------------|
G|---0-----0-2---2-4p2-0------|
D|-0----------------------0-2-|
C|------------------------0---|
E|-----0----------------------|



D|----------------------------|---------0----------0-----------|
A|---------0h2---3p2-0---0----|----------------0-2---0h2p0---0-|
G|-0-----0-0-----------0----0-|----------------------------0---|
D|---2p0-------0--------------|-----2/4------2-----------------|
C|----------------------------|-----------0------------------2-|
E|---------3-------------2----|-X-2----------------------------|



(Obs3.: Esse E|---4b(5)--...| é um bend de meio tom)



D|---------------------0---------|---------------------------|
A|-------------0-0h2-----2h3p2-0-|---0-------------------0---|
G|-0--------0----0---------------|-0---0---------0---0h2---2-|
D|---4b(5)-----------0-----------|-------------0-------------|
C|-------------------------------|-----------4---------------|
E|---------------3---------------|---2---X-2-------0---------|



D|------------------------------|--------------------------|
A|-0----------------------0h2---|-3-2-0---0--------------0-|
G|---4p2p0--------0-----0-0-----|-------0---0----------0---|
D|----------0h2~----2p0-------0-|--------------------0-----|
C|----------0-------------------|------------------4-------|
E|------------------------3-----|---------2---X--2-------3-|



D|------------|-4h5----5p4-0---0h2----3-2-0-|
A|------------|-5---------------------------|
G|-0----------|-----0--------0-----0--------|
D|----0---0---|-----------------------------|
C|------0-----|----------------0------------|
E|----------7-|-0---------------------------|



D|-------0--0-------2-----|---4h5----7/9-0-5h7-5-|
A|-0h2-3-0--0-----5---5---|---5------------5-----|
G|-0------------2-------0-|-------0--------------|
D|------------2-----------|----------------------|
C|------------------------|----------------0-----|
E|-3--------2-------------|-0--------------------|


(Obs4.: Esse (01:05) é o tempo que volta a dedilhar( esse tempo que coloquei serve para
facilitar na hora de dedilhar)

                                   (01:05)

D|---------0---------------|---------------|
A|---5h7--------0----------|-------------0-|
G|-0-----0---------0-----0-|----------0----|
D|-----------0--------2----|-/4-----0------|
C|-------------------------|---------------|
E|-------------------------|---------------|



D|-------0-----------------------|------------------------------|
A|-0h2-----2h3p2-0---0-----------|--------0-----0---------------|
G|-----------------0----0--------|---0------0-2---2-4p2-0-------|
D|-----0-------------------------|-0-----------------------0h2~-|
C|-----------------------------4-|-------------------------0----|
E|-3-----------------2----X--2---|-----0------------------------|



D|-----------------------------|----------0----------0-----------|
A|---------0h2----3p2-0---0----|-----------------0-2---0h2p0---0-|
G|-0-----0-0------------0----0-|------2/4--------------------0---|
D|---2p0-------0---------------|---------------2-----------------|
C|-----------------------------|------------0------------------2-|
E|---------3--------------2----|-X--2----------------------------|



D|---------------------0---------|---------------------------|
A|-------------0-0h2-----2h3p2-0-|---0-------------------0---|
G|-0--------0----0---------------|-0---0---------0---0h2---2-|
D|---4b(5)-----------0-----------|-------------0-------------|
C|-------------------------------|-----------4---------------|
E|---------------3---------------|---2---X-2-------0---------|



D|------------------------------|--------------------------|
A|-0----------------------0h2---|-3-2-0---0--------------0-|
G|---4p2p0--------0-----0-0-----|-------0---0----------0---|
D|----------0h2~----2p0-------0-|--------------------0-----|
C|----------0-------------------|------------------4-------|
E|------------------------3-----|---------2---X--2-------3-|



D|------------|-4h5----5p4-0---0h2----3-2-0-|
A|------------|-5---------------------------|
G|-0----------|-----0--------0-----0--------|
D|----0---0---|-----------------------------|
C|------0-----|----------------0------------|
E|----------7-|-0---------------------------|



D|-------0--0-------2-----|---4h5----7/9-0-5h7-5-|
A|-0h2-3-0--0-----5---5---|---5------------5-----|
G|-0------------2-------0-|-------0--------------|
D|------------2-----------|----------------------|
C|------------------------|----------------0-----|
E|-3--------2-------------|-0--------------------|



D|---------0---0----------------|
A|---5h7---------0--------------|
G|-0-----0----------0-----0-----|
D|-----------0--------0h2----/4-|
C|------------------------------|
E|------------------------------|


  (01:30)

D|----------2-4---0------------|--------------0---------------|
A|--------0------------------0-|--------3-------3-----0h2-0---|
G|------0-------0--------0-----|---0------4-------0---------0-|
D|----0--------------------7---|-0----------5-----------------|
C|-0-----------------6~--------|--------------------0---------|
E|----------------7------------|-----5------------------------|



D|------------------0----------|-----------------------5------4-|
A|--------------0h2---0----0h2-|----3p2-0-----------3---------2-|
G|-------0---------------0-----|-----------0------4-------------|
D|-0-2-4------0----------------|-0--------------5---------------|
C|-----------------------------|----------------------------0---|
E|---------0----------2----3---|-------------5-----------X------|



D|-2p0---------------2p0---0-|-----------------------0-------|
A|--------2p0----------------|--------0--------3-------3-----|
G|------------0----0-----0---|----0-------0------4-------0---|
D|------0--------------------|------7---0----------5---------|
C|--------------0------------|-6~--------------------------0-|
E|-------------------------7-|--------------5----------------|



D|-------------------------0---|----------------------------|
A|-0h2-0---------------0h2---0-|---0h2----3p2p0-----------3-|
G|-------0-------0-------------|-0---------------0------4---|
D|----------2/4~-----0---------|-------0--------------5-----|
C|-----------------------------|----------------------------|
E|-----------------0---------0-|---3---------------5--------|



D|-5------9--7p5----4p0-----|-----0h2p0---0--------------------|
A|--------5--5------5-------|----------------------------------|
G|----------------------0---|---0-------0------0------0--------|
D|---X------------0---------|-2----------------4b(5)-------0---|
C|---X--0-----------------0-|-------------2-------------X----0-|
E|---X----------------------|----------------------------------|



D|--------4----------------0-|-------2-0-----0-------------|
A|-----2----------------2----|-------------0---------------|
G|---0---------0------0------|-----------0------0------0---|
D|-2----------------4--------|----2---------------4b(5)----|
C|----------X----2-----------|-0-------------2-----------X-|
E|---------------------------|-----------------------------|



D|------------5--4-2-0----------|-----------|
A|----------0--------------0----|-----0-----|
G|--------0-------------------0-|---0-------|
D|-0----5--------4-2-0--0-------|-2------/4-|
C|---0--------------------------|-----------|
E|------------------------------|-----------|


(Obs5.: O (02:25) tem que prestar bastante atenção no dedilhado, é a parte que
se dedilha direto)

  (02:20)                                          (02:25)

D|-----------------------|--0--------------0h2p0---2---|
A|-----------0-----------|-------0-------0-----------0-|
G|----------------0------|-------------0---------0-----|
D|---0----0------------0-|-----------4-----------------|
C|-0-----------X---------|----X--------------------0---|
E|-----3-------X----2----|----X----0-------------------|



D|---4-----5-----4-----5-----7-----|-4-----5-----7-----4-----5-----0-|
A|-----0-----0-----0-----0-----0---|---0-----0-----0-----0-----0-----|
G|-0-----0-----0-----0-----0-----0-|-----0-----0-----0-----0-----0---|
D|---------------0-----------------|---------------------------------|
C|---------------------------------|---------------------------------|
E|---------------------------------|-3-----------------2-------------|



D|-----9p5-----5---------7p4-----4-|---0---------------0--------------|
A|-0---------5---5---0---------5---|-----0---------2h3---3p2-0---0----|
G|---0-----7-------7---0-----0-----|-7-----0-----0-------------0----0-|
D|-----------------------0---------|-----------0----------------------|
C|-----0---------------------------|----------------------------------|
E|---------------------------------|---------3-------------------2----|


(Obs6.: (02:38) recomeça a música)

                                      (02:38)

D|--------------------0---------|-----------------|
A|-----------------2-----0------|---------------0-|
G|--------0------0----------0---|----------0------|
D|-4b(5)-------0----------------|-0----1---1------|
C|------------------------------|------3------3---|
E|-----------1----------------0-|-----------------|



D|-----------------0-----------------|
A|-1p0-0---2---3/5---------3--2-0--0-|
G|-----------0-----------0---------0-|
D|-------0-----------0-2-----------4-|
C|-----------------------------------|
E|-----3-----------------------------|



D|------2p0-----0------------|--------------0---------------|
A|------------0------------0-|--------3-------3-----0h2p0---|
G|----------0----------0-----|---0------4-------0---------0-|
D|----2------------------7---|-0----------5-----------------|
C|-0---------------6~--------|--------------------0---------|
E|--------------7------------|-----5------------------------|



D|-----------------0----------|---------------------5------9-|
A|-------------0h2---0----0h2-|---3p2-0----------3---------5-|
G|-------0-------------0------|---------0------4-------------|
D|-0h2-4-----0----------------|-0------------5---------------|
C|----------------------------|--------------------------0---|
E|---------0---------2----3---|-----------5-----------X------|



D|-7p5----4p0---------2p0---|---0-------------------------4-|
A|-5-----5------------------|-0---------------------------2-|
G|------------0-----------0-|------0--------0-------------0-|
D|-----0-----------2--------|--------4b(5)-------0-----2----|
C|--------------0-----------|---2-------------X----0--------|
E|--------------------------|-------------------------------|



D|--------0-|--------2p0-----0----------|
A|--------2-|--------------0------------|
G|--------0-|------------0------0-------|
D|-----4----|-----2---------------4b(5)-|
C|-2--------|--0-------------2----------|
E|----------|---------------------------|



D|-------------5---4-2-0------|-----------------|
A|--------------------------0-|-----------0-----|
G|-0---------0----------------|--0------0-------|
D|------0------5---4-2-0--0---|-----0-2-----2/4-|
C|---X----0-------------------|-----------------|
E|----------------------------|-----------------|



D|--------------0-----------------|-------------------------------|
A|----0----2------3p2-0----0------|------------0-----0------------|
G|-0---------------------0----0---|-------0------0-2---2-4p2p0----|
D|-----------0--------------------|-----0-----------------------0-|
C|--------------------------------|---4-------------------------0-|
E|------3------------------2----X-|-2-------0---------------------|



D|---------------------------|---------------0----------0-----|
A|------------0h2----3p2-0---|-0--------------------0-2---0h2-|
G|----0-----0-0------------0-|----0------2/4------------------|
D|-2----2p0-------0----------|--------------------2-----------|
C|---------------------------|-----------------0--------------|
E|------------3--------------|-2----X--2----------------------|



D|----------------------------|-0--------------------------------|
A|-0---0----------------0h2---|---2h3p2-0---0--------------------|
G|---0----0---------0---0-----|-----------0----0----------0----0-|
D|----------4b(5)-----------0-|-------------------------0--------|
C|-----2----------------------|-----------------------4----------|
E|----------------------3-----|-------------2----X--2-------0----|



D|-------------------------------|----------------------------|
A|---0---0---------------------0-|-2----3-2-0---0-------------|
G|-2---2---4p2-0-------0-----0-0-|------------0----0----------|
D|---------------0h2-----2p0-----|---0----------------------0-|
C|---------------0---------------|------------------------4---|
E|-----------------------------3-|--------------2----X--2-----|


D|----------------------|
A|---0--------------0h2-|
G|-0----0-----------0---|
D|----------0----0--0---|
C|------------0---------|
E|---3--------------3---|

Top cifras de Andy Mckee

  1. Rylynn Intro
  2. I'll Be Over You(cover Toto)
  3. Hunter's Moon
  4. Art Of Motion
  5. Ebon Coast
  6. Layover
  7. For My Father
  8. Spirit of the West (part. Don Ross)
  9. Common Ground
  10. Ebon Coast Intro

Pela Web