Cifras Web
Andy Mckee

Spirit of the West (part. Don Ross)

Andy Mckee

18 acessos

Versão "The Thing That Came from Somewhere" (estúdio)
Afinações: Don: EADGBE (capo 2)   Andy: D A D F# A D

Obs.: Na tab. os 0(zero) equivalem a corda solta, é claro que
fica entendido que esse 0(zero) na verdade é 2(dois), porque o
capotraste está na segunda casa (traste).

Introdução e base da música.


E |-----------0-------------0-----|
B |---3-----3-3-----3----3--3-----|
G |---4-----4-4-----4----6----6---|
D |---5-5---5-----5---5--4------4-|
A |-x-----x-----x-----------------|
E |-x-----x-5---x-----------------|



E |----------0----------------0--0---|
B |--3-----3-3-----3---------3-------|
G |--4-----4-4-----4--------0------0-|
D |--5-5---5-----5---5---0h4---------|
A |------x-----x--------0------------|
E |------x-5---x---------------------|



E |----------0-------------0-----|
B |--3-----3-3-----3----3--3-----|
G |--4-----4-4-----4----6----6---|
D |--5-5---5-----5---5--4------4-|
A |------x-----x-----------------|
E |------x-5---x-----------------|



E |---------------------------0-|
B |--3-----5-5-----3---------3--|
G |--4-----6-6-----4--------0---|
D |--5-5---7-7---5---5---0h4----|
A |------x-----x--------0-------|
E |------x-7---x----------------|


Base continua enquanto começa o solo.

Solo (00:13)


E |------------------------------------|
B |------------------------------------|
G |-4-6-7~~--6h7p6-4--0--4-------------|
D |------------------------------------|
A |-------------------------5-7/9-7~~--|
E |------------------------------------|



E |--------------------------------------------------------|
B |--------------------------------------------------------|
G |--------------------------------------------------------|
D |--------------------------------------7-----------------|
A |-5-7-5-7/9~~--7-5------5---7-5-7-7/9~----------------5~-|
E |------------------7~~----7--------------9-7~~--5-7-5----|



E |-7-9-10~~--9-7b(8)----7--------------|
B |-------------------10----------------|
G |-------------------------7-9/11-9~~--|
D |-------------------------------------|
A |-------------------------------------|
E |-------------------------------------|



E |--------------------------------------------------------------|
B |-------5/7~~---------------------------10---------------------|
G |-7-9-7--------9-7------7---9-7-9-9/11~------------------6/7~~-|
D |------------------9~~----9----------------11-9~~--7-9-7-------|
A |--------------------------------------------------------------|
E |--------------------------------------------------------------|


(00:40) Faz essa parte da base.


E |------------------------0-----|
B |--3-----5-5-----3----3--3-----|
G |--4-----6-6-----4----6----6---|
D |--5-5---7-7-----5-5--4------4-|
A |------x-----x--------0--------|
E |------x-7---x-5---------------|



E |-----------------------0-|
B |--3-----5-5-----3----3-3-|
G |--4-----6-6-----4----0-0-|
D |--5-5---7-7-----5-5--4---|
A |------x-----x--------5---|
E |------x-7---x-5----------|


Obs2: Ai tem um slide (ascendente), mas na verdade é um slide
(descendente). Escrevi assim na tablatura porque às vezes
não aparece na tab. quando eu mando para o site.

Solo (00:47)


E |-----------------------8-8-8/-|
B |--------9--------------8-8-8/-|
G |-7-9-10---10b-9-7----9--------|
D |------------------10----------|
A |------------------------------|
E |------------------------------|


Base (00:47)


E |-----------------8-|
B |-6-----8-6---7---8-|
G |-7-----8-7---7---0-|
D |-8-8---8-8-8-7-7-0-|
A |-----------------7-|
E |-8---8---8---7---8-|


Obs3: Volta com a base normal.

Solo (00:51)


E |-7-9-10~~--9-7b(8)----7--------------|
B |-------------------10----------------|
G |-------------------------7-9/11-9~~--|
D |-------------------------------------|
A |-------------------------------------|
E |-------------------------------------|



E |--------------------------------------------------------------|
B |-------5/7~~---------------------------10---------------------|
G |-7-9-7--------9-7------7---9-7-9-9/11~------------------6/7~~-|
D |------------------9~~----9----------------11-9~~--7-9-7-------|
A |--------------------------------------------------------------|
E |--------------------------------------------------------------|


Obs4: Essa parte muda outra vez, mas é só repetir o solo e a base
duas vezes. No solo tem um slide (ascendente).

Solo (01:04)


E |-----------------------------NH--7-5-5-5-----5/-|
B |-----------------------------12--7-0-5-5-8-7-5/-|
G |-11-9-12--------NH-9h11-9----12----------9-7----|
D |-------------NH-12--------12--------------------|
A |----------NH-12---------------------------------|
E |----------12------------------------------------|



E |-----------------------------NH--7-5-7-----10-------------|
B |-----------------------------12--7-5-7-7h8----8-7h8p7-----|
G |-11-9-12--------NH-9h11-9----12-----------------------9~~-|
D |-------------NH-12--------12------------------------------|
A |----------NH-12-------------------------------------------|
E |----------12----------------------------------------------|


Base (01:04)


E |----------------------------0------------|
B |--8-----8--8----8-----8---0-0----8--8----|
G |--9-----9--9----9-----9---0-0----9--9----|
D |-10----10-10---10----10---4-----10-10----|
A |-------------x----------x-5---x-------x--|
E |-10-10-------x-10-10----x-----x-10----x--|



E |--------0---5-0-0--|
B |-10-0-3-3---5-0-0--|
G |--9-0-0-0---5-7-7--|
D |-11-4-4---------7--|
A |--9-5-----x-7------|
E |----------x---7----|



E |----------------------------0------------|
B |--8-----8--8----8-----8---0-0----8--8----|
G |--9-----9--9----9-----9---0-0----9--9----|
D |-10----10-10---10----10---4-----10-10----|
A |-------------x----------x-5---x-------x--|
E |-10-10-------x-10-10----x-----x-10----x--|



E |--------0---5-----5---|
B |-10-0-3-3---7---5-5---|
G |--9-0-0-0---7---6-6---|
D |-11-4-4---------7-----|
A |--9-5-----x-5-x-5---x-|
E |----------x---x-----x-|


Obs5: Volta com a base normal.

Solo (01:31)


E |-7-9-10~~--9-7b(8)----7--------------|
B |-------------------10----------------|
G |-------------------------7-9/11-9~~--|
D |-------------------------------------|
A |-------------------------------------|
E |-------------------------------------|



E |--------------------------------------------------------------|
B |-------5/7~~---------------------------10---------------------|
G |-7-9-7--------9-7------7---9-7-9-9/11~------------------6/7~~-|
D |------------------9~~----9----------------11-9~~--7-9-7-------|
A |--------------------------------------------------------------|
E |--------------------------------------------------------------|


Obs6: Muda outra vez. Essa base não está 100% correta porque o Andy faz
two hands e está apenas adaptada. Na tablatura do solo tem um "T” em uma
das tabs, é o tapping.

Solo (01:45)


E |-----------------------9--------------------------------------|
B |-------------9----9h11---11-----9-7-9--7/9~-7p0-4p0-0-4-0-7~~-|
G |-----11b(12)---11-----------11~-------------------------------|
D |-8------------------------------------------------------------|
A |--------------------------------------------------------------|
E |--------------------------------------------------------------|



E |--------------------------------------------|
B |-9b10r(9)-9-7-7h9-7-9-7-9--9-7---0-4-0-7~~--|
G |-------------------------------8------------|
D |--------------------------------------------|
A |--------------------------------------------|
E |--------------------------------------------|


   
T---------------------------|
E |-4p0---------|5|-4p0---------|5
B |-----2p0h2p0-|v|-----6p0h6p0-|v
G |-------------|e|-------------|e
D |-------------|z|-------------|z
A |-------------|e|-------------|e


E |-------------|s|-------------|s



E |-6-7-7h9-7-9-11b12r(11)-11-9-11-----------------------------|
B |-------------------------------------7-9-11p9-7---7-9---7~~-|
G |---------------------------------6h8------------8-----8-----|
D |------------------------------------------------------------|
A |------------------------------------------------------------|
E |------------------------------------------------------------|


 (02:11)

E |----------------------------------------------|
B |-----10---8---7-5-3-5/7-10-10h12-12-8-7-5-3-3-|
G |----------------------------------------------|
D |-5/7----7---7---5-4-5/7-11-11----10-9-5-5-4-4-|
A |----------------------------------------------|
E |----------------------------------------------|



E |-5p3p0---------------------|
B |-------5p3p0---------------|
G |-------------4-0h4-4-------|
D |---------------------5-4-0-|
A |---------------------------|
E |---------------------------|



E |----------------------------10-12-14-12p10----10~~-|
B |----------------------10h12----------------12------|
G |---------------7-9/11------------------------------|
D |---------5-7/9-------------------------------------|
A |-----5-7-------------------------------------------|
E |-5h7-----------------------------------------------|



E |---------------------------|
B |-5p3p0-0-3-----------------|
G |-----------4-0-------------|
D |---------------5-4h5p4-0---|
A |-------------------------5-|
E |---------------------------|



E |------------------------------------14----14-|
B |----------------------10-10h12-8/10----10----|
G |---------------7-9/11------------------------|
D |---------5-7/9-------------------------------|
A |-----5-7-------------------------------------|
E |-5h7-----------------------------------------|



E |-14h17-12h14-10h12-9h10-10-10p7----7-----------------------|
B |--------------------------------10---10-7-8----------------|
G |--------------------------------------------11h12-11-9p7-7-|
D |-----------------------------------------------------------|
A |-----------------------------------------------------------|
E |-----------------------------------------------------------|



E |-----------------------|
B |-----------------------|
G |-----7-9~-11p9-7-----7-|
D |-7h9-------------9-7---|
A |-----------------------|
E |-----------------------|



Base (01:45)


E |---------------------------------------------|5
B |-7h9-----7-----7-----7---7h9-----7-----7---7-|v
G |-8-------8-----8-----8---8-------8-----8---8-|e
D |-------------------------------------------9-|z
A |-----------x-----------x-----------x---------|e
E |-9---9-7---x-6---6-0---x-9---9-7---x-6---6-9-|s


 (02:11)

E |-----------0-------------0-----|
B |---3-----3-3-----3----3--3-----|
G |---4-----4-4-----4----6----6---|
D |---5-5---5-----5---5--4------4-|
A |-x-----x-----x-----------------|
E |-x-----x-5---x-----------------|



E |----------0----------------0--0---|
B |--3-----3-3-----3---------3-------|
G |--4-----4-4-----4--------0------0-|
D |--5-5---5-----5---5---0h4---------|
A |------x-----x--------0------------|
E |------x-5---x---------------------|



E |----------0-------------0-----|
B |--3-----3-3-----3----3--3-----|
G |--4-----4-4-----4----6----6---|
D |--5-5---5-----5---5--4------4-|
A |------x-----x-----------------|
E |------x-5---x-----------------|



E |---------------------------0-|
B |--3-----5-5-----3---------3--|
G |--4-----6-6-----4--------0---|
D |--5-5---7-7---5---5---0h4----|
A |------x-----x--------0-------|
E |------x-7---x----------------|


Obs7: Muda a base outra vez.

Solo (02:36)


E |-----------------------------NH--7-5-5-5-----5/-|
B |-----------------------------12--7-0-5-5-8-7-5/-|
G |-11-9-12--------NH-9h11-9----12----------9-7----|
D |-------------NH-12--------12--------------------|
A |----------NH-12---------------------------------|
E |----------12------------------------------------|



E |-----------------------------NH--7-5-7-----10-------------|
B |-----------------------------12--7-5-7-7h8----8-7h8p7-----|
G |-11-9-12--------NH-9h11-9----12-----------------------9~~-|
D |-------------NH-12--------12------------------------------|
A |----------NH-12-------------------------------------------|
E |----------12----------------------------------------------|


Base (02:36)


E |----------------------------0------------|
B |--8-----8--8----8-----8---0-0----8--8----|
G |--9-----9--9----9-----9---0-0----9--9----|
D |-10----10-10---10----10---4-----10-10----|
A |-------------x----------x-5---x-------x--|
E |-10-10-------x-10-10----x-----x-10----x--|



E |--------0---5-0-0--|
B |-10-0-3-3---5-0-0--|
G |--9-0-0-0---5-7-7--|
D |-11-4-4---------7--|
A |--9-5-----x-7------|
E |----------x---7----|



E |----------------------------0------------|
B |--8-----8--8----8-----8---0-0----8--8----|
G |--9-----9--9----9-----9---0-0----9--9----|
D |-10----10-10---10----10---4-----10-10----|
A |-------------x----------x-5---x-------x--|
E |-10-10-------x-10-10----x-----x-10----x--|



E |--------0---5-----5---|
B |-10-0-3-3---7---5-5---|
G |--9-0-0-0---7---6-6---|
D |-11-4-4---------7-----|
A |--9-5-----x-5-x-5---x-|
E |----------x---x-----x-|


Obs8: Penúltima parte.

Solo (03:03)


E |-------------------------------------7-5-------------|
B |-12-8-10-----8~-7-5---5-7--5-7-5---7-----7-5-7---7-8-|
G |---------6-7--------7------------7-------------7-----|
D |-----------------------------------------------------|
A |-----------------------------------------------------|
E |-----------------------------------------------------|



E |-------------------|
B |-10-9-7-5---5-7~~--|
G |----------7--------|
D |-------------------|
A |-------------------|
E |-------------------|


Base (03:03)


E |----0-0---0-----------------------------------|
B |--3-0-5-3-0-7-5-5-3-7-3---4/-7-5-5-9-9---8----|
G |--4---0-4---0-5-0-4-5-3---4/-0-6-5-9-9---0----|
D |--5-4-4-5-4-5-7-5-5-7-3---4/-0-7-5-9-9---7-7--|
A |----5-5---5---5---0-5-5-x------5-5------------|
E |--5-----5---7---5-------x-4--7-----9-9-8------|




Obs9: Final


E |-11-13-14-11h13-11-9-11--------------------------------|
B |------------------------7-9/11-9~~-7-9-7-9/11-9-7-8~~--|
G |-------------------------------------------------------|
D |-------------------------------------------------------|
A |-------------------------------------------------------|
E |-------------------------------------------------------|



E |----------9----------------|
B |-9p7h9-11--------------7~~-|
G |------------10-8-6h8p6-----|
D |---------------------------|
A |---------------------------|
E |---------------------------|



E |-11-13-14-11h13-11-9-11--------------------------------|
B |------------------------7-9/11-9~~-7-9-7-9/11-9-7-8~~--|
G |-------------------------------------------------------|
D |-------------------------------------------------------|
A |-------------------------------------------------------|
E |-------------------------------------------------------|



E |----------9----------------|
B |-9p7h9-11--------------7~~-|
G |------------10-8-6h8p6-----|
D |---------------------------|
A |---------------------------|
E |---------------------------|



E |-7-10-5-0----------------------------|
B |----------5~~-3--5h6-3----3-----3~~--|
G |------------------------4---4-0------|
D |-------------------------------------|
A |-------------------------------------|
E |-------------------------------------|


Base

E |---------0-----------0-----------0---------------|4
B |-0-----0-0-----0---7-7---0-----0-0----0---7-7----|v
G |-4-----6-6-----4---8-8---4-----6-6----4---7-7----|e
D |-4-4---6-------4-4-8-----4-4---6------4-4-7-7----|z
A |-0---x-4---x-0-----6---x-0---x-4---x-0--------x--|e
E |-----x-----x-----------x-----x-----x------7---x--|s

Top cifras de Andy Mckee

  1. Rylynn Intro
  2. I'll Be Over You(cover Toto)
  3. Hunter's Moon
  4. Art Of Motion
  5. Ebon Coast
  6. Layover
  7. For My Father
  8. Spirit of the West (part. Don Ross)
  9. Common Ground
  10. Ebon Coast Intro

Pela Web