Cifras Web
Andy Mckee

Rylynn Intro

Andy Mckee

149 acessos

Afinação: DAGDCE

(Afinar assim)

D5
A4
G4
D4
C4
E3

Afinação: ECDGAD

Capostraste na quinta casa da sexta até a terceira corda.
                            

D|---0h7h9--10-----9/10-9--0----10---9------12-------10--9h10p9--0--|
A|-----------0-------------7~----0------10------------0----------7~-|
G|-----------0-------------0-----0---------------5----0----------0--|
D|-----------0-------------0-----0--------------------0----------0--|
C|-----------0-------------0-----0--------------------0----------0--|
E|-------------------------0-------------------------------------0--|



D|--------0--------------------------------------------------------|
A|------5---------2------------------------------------------------|
G|----0----0---0--------0-2-4--2----9--7---0-2-4--2-----------0--0-|
D|--0----0---0----------0---2--4----7--9---0---2--4------0-------0-|
C|----------------------0---0--0----0--0---0---0--0--------------4-|
E|----------------------0---3--3----8--8---0---3--3---7----7-----7-|



D|----------------------------7/9--10-9--------9-10--10/12-14--10--5-|
A|------------------------8---------------10----------------0---8--2-|
G|--0-2-4--2---9--7-----------------------------------------0---0--0-|
D|--0---2--4---7--9-----------------------------------------0---0--0-|
C|--0---0--0---0--0------------------------------------------------0-|
E|--0---3--3---8--8-------5----------------7-------------------------|


Versão 2 

Afinação: eBGDAE (que não é o tom original).

(intro.)
                                       

e|---5-7--8---7h8p7--0-|-8--7-----10--------|-8--7-----0-|
B|-3-------------------|-------8------------|-------8--1-|
G|--------5----------0-|-5---------------10-|-5--------0-|
D|--------7---------10-|-7------------------|-7--------3-|
A|-------------------8-|-0-------------8----|-0----------|
E|--------5------------|--------------------|------------|

  

e|--------------------|------0------5--3-|------0--------------|
B|---1-3-3--3-1---1-0-|-1--3----3---3--5-|-1--3----3---------1-|
G|-0------------0-----|-0--0-2-----------|-0--0-2--------2-0---|
D|--------------------|-3--3-3------3--3-|-3--3-3--------------|
A|--------------------|-0--2-3------8--8-|-0--2-3------0-------|
E|--------------------|------------------|---------------------|


e|------0------5--3-|-1--5/7-8-7--7----8/12-12--8----|
B|-1--3----3---3--5-|-1-----------8---------10-----0-|
G|-0--0-2-----------|-5-----------5--7---------10-12-|
D|-3--3-3------3--3-|-----------------------10-10-10-|
A|-0--2-3------8--8-|-5-----------7---------------10-|
E|------------------|-----------------------13-------|

Top cifras de Andy Mckee

  1. Rylynn Intro
  2. I'll Be Over You(cover Toto)
  3. Hunter's Moon
  4. Art Of Motion
  5. Ebon Coast
  6. Layover
  7. For My Father
  8. Spirit of the West (part. Don Ross)
  9. Common Ground
  10. Ebon Coast Intro

Pela Web