Cifras Web
Andy Mckee

Klimbim (part. Don Ross)

Andy Mckee

13 acessos

(Obs) Afinações: Don: EADGBE (capo 2) Andy: B F# C# F# B F#
O NH é o harmônico natural. O "x" na tab. dá uma batida com
a unha.

      
|NH---------|       NH
||--------------12---x-----7-----|
||--------------12---x-----7-----|
||-----------12-12---x-----7--5--|
||--------12---------x--------5--|
||-----12------------x--------5--|


||--0----------------x--4-----5--|


                                                  NH

|------5------------7----|--------------12---x-----7-----|
|------5------------7----|--------------12---x-----7-----|
|------5h7----------7h9--|-----------12-12---x-----7--5--|
|--x-x-5h7---7--x-x-7h9--|--------12---------x--------5--|
|--x-x-5-----7--x-x-7----|-----12------------x--------5--|
|--x-x-5-----7--x-x-7----|--0----------------x--4-----5--|


                                                    NH

|------5----x-x--9--x-x-7--|--------------12---x-----7-----|
|------5----x-x--9--x-x-7--|--------------12---x-----7-----|
|------5h7--x-x-12--x-x-9--|-----------12-12---x-----7--5--|
|--x-x-5h7--x-x-10--x-x-9--|--------12---------x--------5--|
|--x-x-5----x-x--9--x-x-7--|-----12------------x--------5--|
|--x-x-5----x-x--9--x-x-7--|--0----------------x--4-----5--|


                                                 NH

|------5-----------7----|--------------12---x-----7-----|
|------5-----------7----|--------------12---x-----7-----|
|------5h7---------7h9--|-----------12-12---x-----7--5--|
|--x-x-5h7--7--x-x-7h9--|--------12---------x--------5--|
|--x-x-5----7--x-x-7----|-----12------------x--------5--|
|--x-x-5----7--x-x-7----|--0----------------x--4-----5--|


              NH

|------5-------7--||----------5-5-----4--0--x-----|
|------5-------7--||--------4---4-----2-----x--0--|
|------5h7-----7--||------0-----0-----------x--0--|
|--x-x-5h7-----7--||------------------------x--2--|
|--x-x-5-------7--||------------------------x-----|
|--x-x-5----7--7--||---0-----------0--4-----x-----|



|-----0--x----------------------|--0-----x-------------x-----|
|--------x--2h4-----4p2p0----0--|--------x--0h2----2-0-x--2--|
|--------x----0-----------4-----|--------x--0------0---x--0--|
|--------x----------------------|--------x-------------x-----|
|--2-----x-------0--------------|--------x-------------x-----|
|--------x----------------------|--5-----x------5------x-----|



|--------------------------------|-----5--x-----4--0--x-----|
|-----2p0----0----------------0--|-----4--x-----2-----x--0--|
|---------4-----4-2-0-------0----|-----0--x-----------x--0--|
|---------------------0-2-3------|--------x-----------x--2--|
|--0-----------------------------|--------x-----------x-----|
|--------------------------------|--0-----x--0--4-----x-----|



|-----0--x----------------------|--0-----x-------------x-----|
|--------x--2h4-----4p2p0----0--|--------x--0h2----2-0-x--2--|
|--------x----0-----------4-----|--------x--0------0---x--0--|
|--------x----------------------|--------x-------------x-----|
|--2-----x-------0--------------|--------x-------------x-----|
|--------x----------------------|--5-----x------5------x-----|


                                  NH

|--------x-----x---------|--0------5---------------|
|-----4--x--2--x--0--0---|--0------5---------------|
|-----0--x--0--x--0--0---|--0------5---------------|
|-----5--x--3--x--2--2---|--3--x-x-5------7/9--10--|
|--0-----x-----x---------|--2--x-x--------5/7---9--|
|--------x-----x---------|--2--x-x--------5/7---9--|


   NH        NH              NH

|------------------0--|---x-x-5---------------|
|------------------0--|---x-x-5---------------|
|------------12----0--|---x-x-5---------------|
|--12----9---------3--|---x-x-5------7/9--10--|
|--------7---------2--|---x-x--------5/7---9--|
|--------7---------2--|---x-x--------5/7---9--|



|---x-------0--x---------|---------------------------x------|
|---x----------x---------|---------------------------x------|
|---x----------x--10h12--|------12--12p10-----10h12--x---9--|
|---x--9-------x--10h12--|------12--12p10-----10h12--x--10--|
|---x--7-------x-----10--|------10--10--------10h10--x---9--|
|---x--7-------x---------|--10------10----10---------x---9--|



|---x-----------x------|--------------------x------|
|---x-----------x------|--------------------x------|
|---x--7----7h9-x--5h7-|-----7--7p5----5h7--x--7h9-|
|---x--7----7h9-x--5h7-|-----7--7p5----5h7--x--7h9-|
|---x--7----7---x--5---|-----5--5-5----5-5--x--7---|
|---x--7--------x------|--5---------5-------x------|


                          NH

|----------------------x--12--|---5-----4--0--x-----|
|----------------------x--12--|---4-----2-----x--0--|
|-----9--9p7-7--7--9---x--12--|---0-----------x--0--|
|-----9--9p7-7--7--9---x--12--|---------------x--2--|
|-----7--7---7--7--7---x--12--|---------------x-----|
|--7-----7---7--7--7---x---0--|------0--4-----x-----|



|-----0--x----------------------|--0---x-------------x-----|
|--------x--2h4-----4p2p0----0--|------x--0h2----2-0-x--2--|
|--------x----0-----------4-----|------x--0------0---x--0--|
|--------x----------------------|------x-------------x-----|
|--2-----x-------0--------------|------x-------------x-----|
|--------x----------------------|--5---x------5------x-----|



|--------------------------------|-----5--x-----4--0--x-----|
|-----2p0----0----------------0--|-----4--x-----2-----x--0--|
|---------4-----4-2-0-------0----|-----0--x-----------x--0--|
|---------------------0-2-3------|--------x-----------x--2--|
|--0-----------------------------|--------x-----------x-----|
|--------------------------------|--0-----x--0--4-----x-----|



|-----0--x----------------------|--0---x-------------x-----|
|--------x--2h4-----4p2p0----0--|------x--0h2----2-0-x--2--|
|--------x----0-----------4-----|------x--0------0---x--0--|
|--------x----------------------|------x-------------x-----|
|--2-----x-------0--------------|------x-------------x-----|
|--------x----------------------|--5---x------5------x-----|


                                  NH

|--------x-----x---------|--0------5---------------|
|-----4--x--2--x--0--0---|--0------5---------------|
|-----0--x--0--x--0--0---|--0------5---------------|
|-----5--x--3--x--2--2---|--3--x-x-5------7/9--10--|
|--0-----x-----x---------|--2--x-x--------5/7---9--|
|--------x-----x---------|--2--x-x--------5/7---9--|


   NH        NH              NH

|------------------0--|---x-x-5---------------|
|------------------0--|---x-x-5---------------|
|------------12----0--|---x-x-5---------------|
|--12----9---------3--|---x-x-5------7/9--10--|
|--------7---------2--|---x-x--------5/7---9--|
|--------7---------2--|---x-x--------5/7---9--|



|---x-------0--x---------|---------------------------x------|
|---x----------x---------|---------------------------x------|
|---x----------x--10h12--|------12--12p10-----10h12--x---9--|
|---x--9-------x--10h12--|------12--12p10-----10h12--x--10--|
|---x--7-------x-----10--|------10--10--------10h10--x---9--|
|---x--7-------x---------|--10------10----10---------x---9--|



|---x-----------x------|--------------------x------|
|---x-----------x------|--------------------x------|
|---x--7----7h9-x--5h7-|-----7--7p5----5h7--x--7h9-|
|---x--7----7h9-x--5h7-|-----7--7p5----5h7--x--7h9-|
|---x--7----7---x--5---|-----5--5-5----5-5--x--7---|
|---x--7--------x------|--5---------5-------x------|



|---------------10--10--x--3--|---x-----------x-----|
|---------------10--10--x--3--|---x-----------x-----|
|-----9--9p7-7--10--12--x--3--|---x-----3--5--x--7--|
|-----9--9-7-7--10--12--x--5--|---x-----5--5--x--8--|
|-----7--7---7--10--10--x--3--|---x-----3--3--x--7--|
|--7-----7---7--10--10--x--3--|---x--3--------x--7--|



|---x-----------x-------|----------------------x--------|
|---x-----------x-------|----------------------x--------|
|---x-----7--8--x--8h10-|---10--10p8----8--10--x--10h12-|
|---x-----8--8--x--8h10-|---10--10p8----8--10--x--10h12-|
|---x-----7--7--x--8----|----8---8------8------x--10----|
|---x--7--------x--8----|------------8---------x--------|



|----------------------------x-----|---x-----------x-----|
|----------------------------x-----|---x-----------x-----|
|------12--12-10-----10--12--x--3--|---x-----3--5--x--7--|
|------12--12-10-----10--12--x--5--|---x-----5--5--x--8--|
|------10--10--------10--10--x--3--|---x-----3--3--x--7--|
|--10------------10----------x--3--|---x--3--------x--7--|



|---x-----------x-------|----------------------x--------|
|---x-----------x-------|----------------------x--------|
|---x-----7--8--x--8h10-|---10--10p8----8--10--x--10h12-|
|---x-----8--8--x--8h10-|---10--10p8----8--10--x--10h12-|
|---x-----7--7--x--8----|----8---8------8---8--x--10----|
|---x--7--------x--8----|----8---8---8--8---8--x--10----|


                             NH

|-------------------------x--12--|---5-----4--0--x-----|
|-------------------------x--12--|---4-----2-----x--0--|
|---12--12p10-10--10--12--x--12--|---0-----------x--0--|
|---12--12p10-10--10--12--x--12--|---------------x--2--|
|---10--10----10--10--10--x--12--|---------------x-----|
|---10--10----10--10--10--x---0--|------0--4-----x-----|



|-----0--x----------------------|--0---x-------------x-----|
|--------x--2h4-----4p2p0----0--|------x--0h2----2-0-x--2--|
|--------x----0-----------4-----|------x--0------0---x--0--|
|--------x----------------------|------x-------------x-----|
|--2-----x-------0--------------|------x-------------x-----|
|--------x----------------------|--5---x------5------x-----|



|--------------------------------|-----5--x-----4--0--x-----|
|-----2p0----0----------------0--|-----4--x-----2-----x--0--|
|---------4-----4-2-0-------0----|-----0--x-----------x--0--|
|---------------------0-2-3------|--------x-----------x--2--|
|--0-----------------------------|--------x-----------x-----|
|--------------------------------|--0-----x--0--4-----x-----|



|-----0--x----------------------|--0---x-------------x-----|
|--------x--2h4-----4p2p0----0--|------x--0h2----2-0-x--2--|
|--------x----0-----------4-----|------x--0------0---x--0--|
|--------x----------------------|------x-------------x-----|
|--2-----x-------0--------------|------x-------------x-----|
|--------x----------------------|--5---x------5------x-----|


                                  NH

|--------x-----x---------|--0------5---------------|
|-----4--x--2--x--0--0---|--0------5---------------|
|-----0--x--0--x--0--0---|--0------5---------------|
|-----5--x--3--x--2--2---|--3--x-x-5------7/9--10--|
|--0-----x-----x---------|--2--x-x--------5/7---9--|
|--------x-----x---------|--2--x-x--------5/7---9--|


   NH        NH              NH

|------------------0--|---x-x-5---------------|
|------------------0--|---x-x-5---------------|
|------------12----0--|---x-x-5---------------|
|--12----9---------3--|---x-x-5------7/9--10--|
|--------7---------2--|---x-x--------5/7---9--|
|--------7---------2--|---x-x--------5/7---9--|



|---x-------0--x---------|---------------------------x------|
|---x----------x---------|---------------------------x------|
|---x----------x--10h12--|------12--12p10-----10h12--x---9--|
|---x--9-------x--10h12--|------12--12p10-----10h12--x--10--|
|---x--7-------x-----10--|------10--10--------10h10--x---9--|
|---x--7-------x---------|--10------10----10---------x---9--|



|---x-----------x------|--------------------x------|
|---x-----------x------|--------------------x------|
|---x--7----7h9-x--5h7-|-----7--7p5----5h7--x--7h9-|
|---x--7----7h9-x--5h7-|-----7--7p5----5h7--x--7h9-|
|---x--7----7---x--5---|-----5--5-5----5-5--x--7---|
|---x--7--------x------|--5---------5-------x------|



|---------------10--10--x--3--|---x-----------x-----|
|---------------10--10--x--3--|---x-----------x-----|
|-----9--9p7-7--10--12--x--3--|---x-----3--5--x--7--|
|-----9--9-7-7--10--12--x--5--|---x-----5--5--x--8--|
|-----7--7---7--10--10--x--3--|---x-----3--3--x--7--|
|--7-----7---7--10--10--x--3--|---x--3--------x--7--|



|---x-----------x-------|----------------------x--------|
|---x-----------x-------|----------------------x--------|
|---x-----7--8--x--8h10-|---10--10p8----8--10--x--10h12-|
|---x-----8--8--x--8h10-|---10--10p8----8--10--x--10h12-|
|---x-----7--7--x--8----|----8---8------8------x--10----|
|---x--7--------x--8----|------------8---------x--------|



|----------------------------x-----|---x-----------x-----|
|----------------------------x-----|---x-----------x-----|
|------12--12-10-----10--12--x--3--|---x-----3--5--x--7--|
|------12--12-10-----10--12--x--5--|---x-----5--5--x--8--|
|------10--10--------10--10--x--3--|---x-----3--3--x--7--|
|--10------------10----------x--3--|---x--3--------x--7--|



|---x-----------x-------|----------------------x--------|
|---x-----------x-------|----------------------x--------|
|---x-----7--8--x--8h10-|---10--10p8----8--10--x--10h12-|
|---x-----8--8--x--8h10-|---10--10p8----8--10--x--10h12-|
|---x-----7--7--x--8----|----8---8------8---8--x--10----|
|---x--7--------x--8----|----8---8---8--8---8--x--10----|


                             NH

|-------------------------x--12--|---5-----4--0--x-----|
|-------------------------x--12--|---4-----2-----x--0--|
|---12--12p10-10--10--12--x--12--|---0-----------x--0--|
|---12--12p10-10--10--12--x--12--|---------------x--2--|
|---10--10----10--10--10--x--12--|---------------x-----|
|---10--10----10--10--10--x---0--|------0--4-----x-----|



|-----0--x----------------------|--0---x-------------x-----|
|--------x--2h4-----4p2p0----0--|------x--0h2----2-0-x--2--|
|--------x----0-----------4-----|------x--0------0---x--0--|
|--------x----------------------|------x-------------x-----|
|--2-----x-------0--------------|------x-------------x-----|
|--------x----------------------|--5---x------5------x-----|



|--------------------------------|-----5--x-----4--0--x-----|
|-----2p0----0----------------0--|-----4--x-----2-----x--0--|
|---------4-----4-2-0-------0----|-----0--x-----------x--0--|
|---------------------0-2-3------|--------x-----------x--2--|
|--0-----------------------------|--------x-----------x-----|
|--------------------------------|--0-----x--0--4-----x-----|



|-----0--x----------------------|--0---x-------------x-----|
|--------x--2h4-----4p2p0----0--|------x--0h2----2-0-x--2--|
|--------x----0-----------4-----|------x--0------0---x--0--|
|--------x----------------------|------x-------------x-----|
|--2-----x-------0--------------|------x-------------x-----|
|--------x----------------------|--5---x------5------x-----|


                                  NH

|--------x-----x---------|--0------5---------------|
|-----4--x--2--x--0--0---|--0------5---------------|
|-----0--x--0--x--0--0---|--0------5---------------|
|-----5--x--3--x--2--2---|--3--x-x-5------7/9--10--|
|--0-----x-----x---------|--2--x-x--------5/7---9--|
|--------x-----x---------|--2--x-x--------5/7---9--|


   NH        NH              NH

|------------------0--|---x-x-5---------------|
|------------------0--|---x-x-5---------------|
|------------12----0--|---x-x-5---------------|
|--12----9---------3--|---x-x-5------7/9--10--|
|--------7---------2--|---x-x--------5/7---9--|
|--------7---------2--|---x-x--------5/7---9--|



|---x-------0--x---------|---------------------------x------|
|---x----------x---------|---------------------------x------|
|---x----------x--10h12--|------12--12p10-----10h12--x---9--|
|---x--9-------x--10h12--|------12--12p10-----10h12--x--10--|
|---x--7-------x-----10--|------10--10--------10h10--x---9--|
|---x--7-------x---------|--10------10----10---------x---9--|



|---x-----------x------|--------------------x------|
|---x-----------x------|--------------------x------|
|---x--7----7h9-x--5h7-|-----7--7p5----5h7--x--7h9-|
|---x--7----7h9-x--5h7-|-----7--7p5----5h7--x--7h9-|
|---x--7----7---x--5---|-----5--5-5----5-5--x--7---|
|---x--7--------x------|--5---------5-------x------|



|---------------10--10--x--3--|---x-----------x-----|
|---------------10--10--x--3--|---x-----------x-----|
|-----9--9p7-7--10--12--x--3--|---x-----3--5--x--7--|
|-----9--9-7-7--10--12--x--5--|---x-----5--5--x--8--|
|-----7--7---7--10--10--x--3--|---x-----3--3--x--7--|
|--7-----7---7--10--10--x--3--|---x--3--------x--7--|



|---x-----------x-------|----------------------x--------|
|---x-----------x-------|----------------------x--------|
|---x-----7--8--x--8h10-|---10--10p8----8--10--x--10h12-|
|---x-----8--8--x--8h10-|---10--10p8----8--10--x--10h12-|
|---x-----7--7--x--8----|----8---8------8------x--10----|
|---x--7--------x--8----|------------8---------x--------|



|----------------------------x-----|---x-----------x-----|
|----------------------------x-----|---x-----------x-----|
|------12--12-10-----10--12--x--3--|---x-----3--5--x--7--|
|------12--12-10-----10--12--x--5--|---x-----5--5--x--8--|
|------10--10--------10--10--x--3--|---x-----3--3--x--7--|
|--10------------10----------x--3--|---x--3--------x--7--|



|---x-----------x-------|----------------------x--------|
|---x-----------x-------|----------------------x--------|
|---x-----7--8--x--8h10-|---10--10p8----8--10--x--10h12-|
|---x-----8--8--x--8h10-|---10--10p8----8--10--x--10h12-|
|---x-----7--7--x--8----|----8---8------8---8--x--10----|
|---x--7--------x--8----|----8---8---8--8---8--x--10----|


                             NH

|-------------------------x--12--|---5-----4--0--x-----|
|-------------------------x--12--|---4-----2-----x--0--|
|---12--12p10-10--10--12--x--12--|---0-----------x--0--|
|---12--12p10-10--10--12--x--12--|---------------x--2--|
|---10--10----10--10--10--x--12--|---------------x-----|
|---10--10----10--10--10--x---0--|------0--4-----x-----|



|-----0--x----------------------|--0---x-------------x-----|
|--------x--2h4-----4p2p0----0--|------x--0h2----2-0-x--2--|
|--------x----0-----------4-----|------x--0------0---x--0--|
|--------x----------------------|------x-------------x-----|
|--2-----x-------0--------------|------x-------------x-----|
|--------x----------------------|--5---x------5------x-----|



|--------------------------------|-----5--x-----4--0--x-----|
|-----2p0----0----------------0--|-----4--x-----2-----x--0--|
|---------4-----4-2-0-------0----|-----0--x-----------x--0--|
|---------------------0-2-3------|--------x-----------x--2--|
|--0-----------------------------|--------x-----------x-----|
|--------------------------------|--0-----x--0--4-----x-----|



|-----0--x----------------------|--0---x-------------x-----|
|--------x--2h4-----4p2p0----0--|------x--0h2----2-0-x--2--|
|--------x----0-----------4-----|------x--0------0---x--0--|
|--------x----------------------|------x-------------x-----|
|--2-----x-------0--------------|------x-------------x-----|
|--------x----------------------|--5---x------5------x-----|


                                  NH

|--------x-----x---------|--0------5---------------|
|-----4--x--2--x--0--0---|--0------5---------------|
|-----0--x--0--x--0--0---|--0------5---------------|
|-----5--x--3--x--2--2---|--3--x-x-5------7/9--10--|
|--0-----x-----x---------|--2--x-x--------5/7---9--|
|--------x-----x---------|--2--x-x--------5/7---9--|


   NH        NH              NH

|------------------0--|---x-x-5---------------|
|------------------0--|---x-x-5---------------|
|------------12----0--|---x-x-5---------------|
|--12----9---------3--|---x-x-5------7/9--10--|
|--------7---------2--|---x-x--------5/7---9--|
|--------7---------2--|---x-x--------5/7---9--|



|---x-------0--x---------|---------------------------x------|
|---x----------x---------|---------------------------x------|
|---x----------x--10h12--|------12--12p10-----10h12--x---9--|
|---x--9-------x--10h12--|------12--12p10-----10h12--x--10--|
|---x--7-------x-----10--|------10--10--------10h10--x---9--|
|---x--7-------x---------|--10------10----10---------x---9--|



|---x-----------x------|--------------------x------|
|---x-----------x------|--------------------x------|
|---x--7----7h9-x--5h7-|-----7--7p5----5h7--x--7h9-|
|---x--7----7h9-x--5h7-|-----7--7p5----5h7--x--7h9-|
|---x--7----7---x--5---|-----5--5-5----5-5--x--7---|
|---x--7--------x------|--5---------5-------x------|



|---------------10--10--x--3--|---x-----------x-----|
|---------------10--10--x--3--|---x-----------x-----|
|-----9--9p7-7--10--12--x--3--|---x-----3--5--x--7--|
|-----9--9-7-7--10--12--x--5--|---x-----5--5--x--8--|
|-----7--7---7--10--10--x--3--|---x-----3--3--x--7--|
|--7-----7---7--10--10--x--3--|---x--3--------x--7--|



|---x-----------x-------|----------------------x--------|
|---x-----------x-------|----------------------x--------|
|---x-----7--8--x--8h10-|---10--10p8----8--10--x--10h12-|
|---x-----8--8--x--8h10-|---10--10p8----8--10--x--10h12-|
|---x-----7--7--x--8----|----8---8------8------x--10----|
|---x--7--------x--8----|------------8---------x--------|



|----------------------------x-----|---x-----------x-----|
|----------------------------x-----|---x-----------x-----|
|------12--12-10-----10--12--x--3--|---x-----3--5--x--7--|
|------12--12-10-----10--12--x--5--|---x-----5--5--x--8--|
|------10--10--------10--10--x--3--|---x-----3--3--x--7--|
|--10------------10----------x--3--|---x--3--------x--7--|



|---x-----------x-------|----------------------x--------|
|---x-----------x-------|----------------------x--------|
|---x-----7--8--x--8h10-|---10--10p8----8--10--x--10h12-|
|---x-----8--8--x--8h10-|---10--10p8----8--10--x--10h12-|
|---x-----7--7--x--8----|----8---8------8---8--x--10----|
|---x--7--------x--8----|----8---8---8--8---8--x--10----|


                             NH

|-------------------------x--12--|---5-----4--0--x-----|
|-------------------------x--12--|---4-----2-----x--0--|
|---12--12p10-10--10--12--x--12--|---0-----------x--0--|
|---12--12p10-10--10--12--x--12--|---------------x--2--|
|---10--10----10--10--10--x--12--|---------------x-----|
|---10--10----10--10--10--x---0--|------0--4-----x-----|



|-----0--x----------------------|--0---x-------------x-----|
|--------x--2h4-----4p2p0----0--|------x--0h2----2-0-x--2--|
|--------x----0-----------4-----|------x--0------0---x--0--|
|--------x----------------------|------x-------------x-----|
|--2-----x-------0--------------|------x-------------x-----|
|--------x----------------------|--5---x------5------x-----|



|--------------------------------|-----5--x-----4--0--x-----|
|-----2p0----0----------------0--|-----4--x-----2-----x--0--|
|---------4-----4-2-0-------0----|-----0--x-----------x--0--|
|---------------------0-2-3------|--------x-----------x--2--|
|--0-----------------------------|--------x-----------x-----|
|--------------------------------|--0-----x--0--4-----x-----|



|-----0--x----------------------|--0---x-------------x-----|
|--------x--2h4-----4p2p0----0--|------x--0h2----2-0-x--2--|
|--------x----0-----------4-----|------x--0------0---x--0--|
|--------x----------------------|------x-------------x-----|
|--2-----x-------0--------------|------x-------------x-----|
|--------x----------------------|--5---x------5------x-----|


                                  NH

|--------x-----x---------|--0------5---------------|
|-----4--x--2--x--0--0---|--0------5---------------|
|-----0--x--0--x--0--0---|--0------5---------------|
|-----5--x--3--x--2--2---|--3--x-x-5------7/9--10--|
|--0-----x-----x---------|--2--x-x--------5/7---9--|
|--------x-----x---------|--2--x-x--------5/7---9--|


   NH        NH              NH

|------------------0--|---x-x-5---------------|
|------------------0--|---x-x-5---------------|
|------------12----0--|---x-x-5---------------|
|--12----9---------3--|---x-x-5------7/9--10--|
|--------7---------2--|---x-x--------5/7---9--|
|--------7---------2--|---x-x--------5/7---9--|



|---x-------0--x---------|---------------------------x------|
|---x----------x---------|---------------------------x------|
|---x----------x--10h12--|------12--12p10-----10h12--x---9--|
|---x--9-------x--10h12--|------12--12p10-----10h12--x--10--|
|---x--7-------x-----10--|------10--10--------10h10--x---9--|
|---x--7-------x---------|--10------10----10---------x---9--|



|---x-----------x------|--------------------x------|
|---x-----------x------|--------------------x------|
|---x--7----7h9-x--5h7-|-----7--7p5----5h7--x--7h9-|
|---x--7----7h9-x--5h7-|-----7--7p5----5h7--x--7h9-|
|---x--7----7---x--5---|-----5--5-5----5-5--x--7---|
|---x--7--------x------|--5---------5-------x------|



|--------------x----------|-------------------x-----|
|--------------x----------|-------------------x-----|
|-----9--9p7---x--4---5h7-|---7--7p5-5--5--7--x--7--|
|-----9--9p7---x--5---5h7-|---7--7p5-5--5--7--x--7--|
|-----7--7-----x--4---5---|---5--5---5--5--5--x--7--|
|--7-----7-----x--4---5---|---5--5---5--5--5--x--7--|



|--------x-------------x------|-------------------x------|
|--------x-------------x------|-------------------x------|
|--9--7--x---------12--x--5h7-|---7--7p5-5--5--7--x--7h9-|
|--9--7--x--9--10------x--5h7-|---7--7p5-5--5--7--x--7h9-|
|--------x-------------x--5---|---5--5---5--5--5--x--7---|
|--------x--9----------x--5---|---5--5---5--5--5--x--7---|



|----------x--x-----------|-------------------x------|
|----------x--x-----------|-------------------x------|
|---9--9p7-x--x--7----5h7-|---7--7p5-5--5--7--x--7h9-|
|---9--9p7-x--x--5----5h7-|---7--7p5-5--5--7--x--7h9-|
|---7--7---x--x--4----5---|---5--5---5--5--5--x--7---|
|---7--7---x--x--4----5---|---5--5---5--5--5--x--7---|


                  NH

|---------------------------|-------------------x------|
|---------------------------|-------------------x------|
|---9--9p7--------12----5h7-|---7--7p5-5--5--7--x--7h9-|
|---9--9p7-9--10--------5h7-|---7--7p5-5--5--7--x--7h9-|
|---7--7----------------5---|---5--5---5--5--5--x--7---|
|---7-------------------5---|---5--5---5--5--5--x--7---|



|----------x--x-----------|------------------x--x--|
|----------x--x-----------|------------------x--x--|
|---9--9p7-x--x--7----5h7-|---7--7--5--5--7--x--x--|
|---9--9p7-x--x--5----5h7-|---7--7--5--5--7--x--x--|
|---7--7---x--x--4----5---|---5--5--5--5--5--x--x--|
|---7--7---x--x--4----5---|---5--5--5--5--5--x--x--|


                         NH    NH
|--x--8--8--x--10-10--x--12--|--7----------|
|--x--8--8--x--10-10--x--12--|--7----------|
|--x--8h10--x--10h12--x--12--|--7----------|
|--x--8h10--x--10h12--x--12--|--7---3---2--|
|--x--8--8--x--10-10--x--12--|--7----------|
|--x--8--8--x--10-10--x---0--|--7----------|

|----||
|----||
|----||
|--2-||
|----||
|--0-||

TOP cifras de Andy Mckee

  1. Rylynn Intro
  2. I'll Be Over You(cover Toto)
  3. Hunter's Moon
  4. Art Of Motion
  5. Ebon Coast
  6. Layover
  7. For My Father
  8. Spirit of the West (part. Don Ross)
  9. Ebon Coast Intro
  10. Africa

Pela Web