Cifras Web
Celtic Frost

I Wont Dancethe Elders Orient

Celtic Frost

10 acessos

.  - palm mute           /  - slide up to
\  - slide down to       ~  - vibrato
h  - hammer on           b  - Bend
p  - pull off            Suffixes for bend
t  - tap                 f  - full bend    h - half bend
ph - pinched harmonic    q  - quarter bend t - tap bend
*  - see comment         ^  - Hold bend    r release bend
x  - Stuccatto           ~  - vibrato bend
,  - slight palm mute    () - ghost note, sustained note
"  - tremolo note        <> - Trill

Tunning E A D G B E

 Intro

  Guitar 1
  
[---------PM-----------]
E|-------------------------------------------|
B|-------------------------------------------|
G|-------------------------------------------|
D|-------------------------------------------|
A|-2-2-2-2-2-2-2-2-2-2-2-2/7--7-7/10-10/12---|


E|-0-0-0-0-0-0-0-0-0-0-0-0/5--5-5/8--8-/10---|


  Guitar 1
  
[---------PM-----------]
E|-------------------------------------------|
B|-------------------------------------------|
G|-------------------------------------------|
D|-------------------------------------------|
A|-2-2-2-2-2-2-2-2-2-2-2-2/5--5-5/7--7\------|


E|-0-0-0-0-0-0-0-0-0-0-0-0/3--3-3/5--5\------|

 [ Guitar 2

E|-------------------------------------------|
B|-------------------------------------------|
G|-------------------------------------------|
D|-------------------------------------------|
A|-----------------------------------7\------|
E|-----------------------------------5\------|


  Guitar 1
  
[---------PM-----------]
E|-------------------------------------------|
B|-------------------------------------------|
G|-------------------------------------------|
D|-------------------------------------------|
A|-2-2-2-2-2-2-2-2-2-2-2-2/7--7-7/10-10/12---|


E|-0-0-0-0-0-0-0-0-0-0-0-0/5--5-5/8--8-/10---|

 [
 [Guitar 2

E|-------------------------------------------|
B|-------------------------------------------|
G|-------------------------------------------|
D|-------------------------------------------|
A|-2---------(2)----------/7-----/10---/12---|
E|-0---------(0)----------/5-----/8----/10---|


  Guitar 1
  
[---------PM-----------]
E|-------------------------------------------|
B|-------------------------------------------|
G|-------------------------------------------|
D|-------------------------------------------|
A|-2-2-2-2-2-2-2-2-2-2-2-2/5--5-5/7--7\------|


E|-0-0-0-0-0-0-0-0-0-0-0-0/3--3-3/5--5\------|

 [ Guitar 2

E|-------------------------------------------|
B|-------------------------------------------|
G|-------------------------------------------|
D|-9----------(9)----------------------------|
A|-7----------(7)-----------5----/7----------|
E|-0----------(0)-----------3----/5----------|


 Chorus Riff

  Trem dip             Trem dip

E|----------------------------------------------|
B|----------------------------------------------|
G|----------------------------------------------|
D|-9----9---------------9-----9---------7--7----|
A|-7----7--7----5---5---7-----7---5--5--5--5----|
E|---------5----3---3-0-----------3--3----------|


 Verse
   
[----------PM------------]
E|--------------------------------------------|
B|--------------------------------------------|
G|--------------------------------------------|
D|-3/5-5-5-5-5-5-5-5-5-5-5-5-x/8-8-8/1010-8\7-|
A-1/3-3-3-3-3-3-3-3-3-3-3-3-x/6-6-6/8-8--6\5-|


E|--------------------------------------------|Rpt


  
[-----------PM-----------]
E|---------------------------------------|
B|---------------------------------------|
G|---------------------------------------|
D|---------------------------5----3----3-|
A|-3/5-5-5-5-5-5-5-5-5-5-5-5-3----1----1-|


E|-1/3-3-3-3-3-3-3-3-3-3-3-3-------------|Rpt

 
 Additional lead 
         ~~~~~~~~~~~~~~~~~~~to Feed back

E|---------------------------------------|
B|---------------------------------------|
G|----10-12---------(12)-----------------|
D|-12------------------------------------|
A|---------------------------------------|
E|---------------------------------------| Rpt


 Rpt Intro riffs with additional lead
  ~~~~~~~~~~~~~~To feedback~~~~~~~  ~~~~~~~~~~~~~~~~To feedback~~~~~

E|-------------------------------------------------------------------|
B|-------------------------------------------------------------------|
G|----------------------------------/9----------------(9)------------|
D|-7-----------(7)-----------------7---------------------------------|
A|-------------------------------------------------------------------|
E|-------------------------------------------------------------------|

                                                              Rpt

 Rpt Chorus Riffs with additional guitar
 
  Guitar 1
  Trem dip             Trem dip

E|--------------------------------------------|
B|--------------------------------------------|
G|--------------------------------------------|
D|-9----9---------------9----9--------7--7----|
A|-7----7--7----5---5---7----7--5--5--5--5----|
E|---------5----3---3-0---------3--3----------|

 
 [Guitar 2 

E|--------------------------------------------|
B|--------------------------------------------|
G|--------------------------------------------|
D|-7--9-9---------------7--9-9--------7-------|
A|--------------------------------------------|
E|--------------------------------------------|


 Rpt structure for 2nd verse and backing for guitar solo.
 Rpt Chorus

 
[----------PM----------]
E|---------------------------------------|
B|---------------------------------------|
G|---------------------------------------|
D|-2-2-2-2-2-2-2-2-2-2-2-2---5-5---7-7-7-|
A|-0-0-0-0-0-0-0-0-0-0-0-0---3-3---5-5-5-|


E|-------------------------0-----0-------|Rpt 4 X


 Rpt Chorus to fade.


TOP cifras de Celtic Frost

  1. The Usurper
  2. Fainted Eyes
  3. Circle Of The Tyrants
  4. I Wont Dancethe Elders Orient
  5. A Dying God Coming Into Human Flesh
  6. A Dying God Coming Into Human Flesh Intro
  7. Ground
  8. Morbid Tales
  9. Visions Of Mortality
  10. Inner Sanctum

Pela Web