Cifras Web
Cute Is What We Aim For

Risque

Cute Is What We Aim For

9 acessos

tuning:standard
tabbed by: redhed / *

this are the chords for the intro and chorus

e|-------------------------------------------------------------------------|
B|-------------------------------------------------------------------------|
G|-4--2--4--4--------------------------------------------------------------|
D|-4--2--4--4--------------------------------------------------------------|
A|-2--0--2--2--------------------------------------------------------------|
E|-------------------------------------------------------------------------|


verse

e|-------------------------------------------------------------------------|
B|-------------------------------------------------------------------------|
G|----------98---------98----------98-9/11-9-------------------------------|
D|---9--9--9----9--9--9-----9--9--9----------------------------------------|
A|-77-77-77---77-77-77----77-77-77-----------------------------------------|
E|-------------------------------------------------------------------------|


pre-chorus repeat this chord x alot with palm muting

e|-------------------------------------------------------------------------|
B|-------------------------------------------------------------------------|
G|-4-----------------------------------------------------------------------|
D|-4-----------------------------------------------------------------------|
A|-2-----------------------------------------------------------------------|
E|-------------------------------------------------------------------------|


enjoy

TOP cifras de Cute Is What We Aim For

  1. Fourth Drink Instinct Intro
  2. Fourth Drink Instict Intro
  3. Hip Hop At Ihop Intro
  4. Lyrical Lies
  5. Risque
  6. The Fourth Drink Instinct
  7. Finger Twist And Split
  8. Forth Drink Instinct Solo
  9. Hip Hop At Ihop
  10. Sweat The Battle Before The Battle Sweats You

Pela Web