Cifras Web
Street Dogs

Back To The World

Street Dogs

13 acessos

Standard Tuning

	(Intro)

E---------------
A---------------
D--10---------8-
G--10---------8-
B--8----------6-
E---------------


	(Intro/Chorus)

E-------------------|--------------|--------------|--------------|
A-------------------|--------------|--------------|--------------|
D--10--10--10-10-10-|--------------|--8--8--8-8-8-|--------------|  X2
G--10--10--10-10-10-|--6--6--6-6-6-|--8--8--8-8-8-|--8--8--8-8-8-|
B--8---8---8--8--8--|--6--6--6-6-6-|--6--6--6-6-6-|--8--8--8-8-8-|
E-------------------|--4--4--4-4-4-|--------------|--6--6--6-6-6-|  


	(Fill/Verse)


E------------|------------|------------|---------------|
A------------|------------|------------|---------------|
D--8-8-------|------------|------------|---------------|  x2
G--8-8---8-8-|--6-6---3-3-|--6-6---3-3-|--8--8--8--6-6-|
B--6-6---8-8-|--6-6---3-3-|--6-6---3-3-|--8--8--8--6-6-|
E--------6-6-|--4-4---1-1-|--4-4---1-1-|--6--6--6--4-4-|


	(Verse)

  


E------------------|-----------------|-----------------|---------------|
A------------------|-----------------|-----------------|---------------|
D------------------|-----------------|-----------------|---------------|  X2
G------------------|-----------------|-----------------|--8--8--8--6-6-|
B--6-6-6-6---------|-----------------|-----------------|--8--8--8--6-6-|
E----------6-6-6-6-|-4-4-4-4-1-1-1-1-|-4-4-4-4-1-1-1-1-|--6--6--6--4-4-|


Then play Fill/Verse Once, Then Verse Once.

Play Intro/Chorus Twice

Play Fill/Verse Twice

Play Verse Twice then Fill/Verse Once then Verse Once

Play Intro/Chorus Twice

(Fill For after second chorus)


E-------------------------------|-------------------------------|
A-------------------------------|-------------------------------|
D--8--8--8-8-8-8--8-8-8---8-8-8-|-------------------------------|
G--8--8--8-8-8-8--8-8-8---8-8-8-|--6--6--6-6-6-6--6-6-6---6-6-6-|
B--6--6--6-6-6-6--6-6-6---6-6-6-|--6--6--6-6-6-6--6-6-6---6-6-6-|
E-------------------------------|--4--4--4-4-4-4--4-4-4---4-4-4-|



E--------------------------------|-------------------------------|
A--------------------------------|-------------------------------|
D--------------------------------|-------------------------------|  X2
G--3--3--3-3-3--6--6-6-6---6-6-6-|--8--8--8-8-8-8--8-8-8---8-8-8-|
B--3--3--3-3-3--6--6-6-6---6-6-6-|--8--8--8-8-8-8--8-8-8---8-8-8-|
E--1--1--1-1-1--4--4-4-4---4-4-4-|--6--6--6-6-6-6--6-6-6---6-6-6-|


Fill/Verse Twice

Intro/Chorus Four Times

Fill/Verse Once

The End.

TOP cifras de Street Dogs

  1. Back To The World
  2. Fatty Solo
  3. Savin Hill
  4. Tobes Got A Drinking Problem Intro
  5. Hard Luck Kid
  6. Drink Tonight
  7. Not Without A Purpose
  8. Pull The Pin
  9. Fighter
  10. Strike A Blow Intro

Pela Web