Cifras Web
Andy Mckee

Africa

Andy Mckee

16 acessos

Afinação:DAGDGD

Afinar assim:

D5
A4
G4
D4
G3
D3

Obs.: Capotraste na 2° casa.


D||-----------------------2p0-|--------2p0-------2p0--------2p0--|
A||---------------------------|--2p0h2-----2p0h2------2p0h2------|
G||--------------------4------|----------------------------------|
D||--5---5--5--5-5--4---------|----------------------------------|
G||--------------------4------|----------------------------------|
D||--5---5--5--5-5--4---------|----------------------------------|



|-----------------------2p0-|--------2p0-------2p0-------2p0--|
|---------------------------|--2p0h2-----2p0h2-----2p0h2------|
|--------------------4------|---------------------------------|
|--5---5--5--5-5--4---------|---------------------------------|
|--------------------4------|---------------------------------|
|--5---5--5--5-5--4---------|---------------------------------|

  

|-----------------------2p0-|--------2p0-------2p0-------2p0--|
|---------------------------|--2p0h2-----2p0h2-----2p0h2------|
|--------------------4------|---------------------------------|
|--5---5--5--5-5--4---------|---------------------------------|
|--------------------4------|---------------------------------|
|--5---5--5--5-5--4---------|---------------------------------|



|-----------------------2p0-|--------2p0-------2p0-------2p0--|
|---------------------------|--2p0h2-----2p0h2-----2p0h2------|
|--------------------4------|---------------------------------|
|--5---5--5--5-5--4---------|---------------------------------|
|--------------------4------|---------------------------------|
|--5---5--5--5-5--4---------|---------------------------------|



|-----------------------------|----------------------------|
|---------------------------0-|----------------------------|
|--6--------------------------|----------------------------|
|----------------9------4h6---|---------------------0--2-2-|
|----6h9-9-9-----9-9--6-6-----|-------------4h6------------|
|--7-----7-7----11------------|--4---4-4----2-----2-2------|

  

|----------------------------|---------------|---------------------0----|
|----------------------------|--4------------|---------------------0----|
|--4------------2------------|---------------|------4---4--4-4--2--4----|
|----0----0------------------|---------------|--5---5---5--5-5--4-------|
|------------6--4-4----4p2-6-|----------4----|--4------------------4----|
|--0----0-0-----2----2-2-----|--4---4-4---7--|--5---5---5--5-5--4-------|



|----------------------------------|-------------------------|
|--------------------------------0-|-------------------------|
|--6-------------------------------|-------------------------|
|-----------------9----------------|------------------0---2--|
|-----9-9---9--9-----9----11h13----|-------------4h6---------|
|--7--7---7------11----11-11-------|--4---4-4----2----2------|



|---------------------------|---------------|---------------------0----|
|---------------------------|---------------|---------------------0----|
|--4-----------2------------|--4------------|------4---4--4-4--2--4----|
|--2p0-0--------------------|---------------|--5---5---5--5-5--4-------|
|-----------6--4--4-4----2--|--6-------4----|--4------------------4----|
|--0---0-------2----2-2-----|--4---4-4---7--|--5---5---5--5-5--4-------|



|-------------------------------|------------------0----2--|
|-----------------------------0-|---------------4----------|
|--6----------------------------|-------------4------------|
|----------------------4---6----|--------------------------|
|-----9-9---9--9----9--6-6------|--------------------------|
|--7----7-7------11-------------|--4---4-4----4----4-------|



|--2p0--0-----0---------0----|--0-0-0-0---0-0-0---0-0-0---0-0-0-|
|--0--------4-----------0----|--0-0-0-0---0-0-0---0-0-0---0-0-0-|
|--0--------------------4----|--4-4-4-4---4-4-4---4-4-4---4-4-4-|
|----------------------------|--0-0-0-0---0-0-0---0-0-0---0-0-0-|
|-----------------------4----|--4-4-4-4---4-4-4---4-4-4---4-4-4-|
|--5----5---5---5-5--4-------|----------------------------------|



|------5-5-5-5---5--5-----5-5-5-5-|--5-5-----5-5-4-4---4-----4-4-0-0-|
|------5-5-5-5---5--5-----5-5-5-5-|--5-5-----5-5-0-0---0-----0-0-0-0-|
|--0---0-0-0-0-0-0--0-0-0-0-0-0-0-|--0-0-0-0-0-0-0-0---0-----0-0-0-0-|
|--0---0-0-0-0-0-0--0-0-0-0-0-0-0-|--0-0-0-0-0-0-----0-0-0-0-0-0-0-0-|
|--0---------0-0-5--5-5-5-5-5-5-0-|--0-0-0-0-0-0-----2-2-2-2---------|
|--0h2----------------------------|------------------0-0-0-0---------|



|------5---5-5-5-5-5-5-5-5-5-5---5-|----5-----5-4---4---4-----4-4-----|
|------0h2-2-2-2-2-3-3-3-3-3-2---2-|----2-----2-0---5---5-----5-5-----|
|------0---0-0-0-0-0-0-0-0-0-0-0-0-|----0-0-0-0-0---0---0-0-0-0-0-----|
|--0---0---0-0-0-0-0-0-0-0-0-0-0-0-|----0-0-0-0-0-0-0---0-0-0-0-0-0-0-|
|--0---------------5-5-5-5-----0---|------0-0-----2-------2-2-----2-2-|
|--0h2-----------------------------|--------------0-------0-0-----0-0-|



|------5-5-5-5---5-----------5-5---5-|---5-----5-5-4-4--4-----4-4-0-0-|
|------5-5-5-5---5---7p5-----5-5---2-|---2-----2-2-0-0--0-----0-0-0-0-|
|------0-0-0-0---5-----------5-5---0-|---0-0-0-0-0-0-0--0-0-0-0-0-0-0-|
|--0---0-0-0-0-5-5-------5-5-5-5-0-0-|---0-0-0-0-0-0-0--0-0-0-0-0-0-0-|
|--0-----------5-5-------5-5-----0---|-----0-0------------2-2---------|
|--0h2-------------------------------|--------------------0-0---------|



|------5-5-5-5---5--5---5-5-5-5-5-|--5-5-5-5--4---4--4-4-4-2p0--|
|------5-5-5-5---5--5---5-5-5-5-5-|--5-5-5-5--0---0--0-0-0-0----|
|------0-0-0-0-0-0--0-0-0-0-0-0-0-|--0-0-0-0--0---0--0-0-0-0----|
|--0---0-0-0-0-0------0---0---0-0-|--0-0-0-0--0---0--0-0-0------|
|--0-----------5------5---5---5-5-|--0-0-0-0-------4------------|
|--0h2----------------------------|-----------------------------|



|--4---4-4-5--0-2--2-2---0---|------------------------2p0-|
|--0---0-0-0--0-0--0-0---0---|----------------------------|
|--0---0-0-0--0-0--0-0---0---|---------------------4------|
|--0------------2--2-2-4-----|--5---5---5--5-5--4---------|
|--7------------x------x-----|---------------------4------|
|---------------2------4-----|--5---5---5--5-5--4---------|



|--------2p0-------2p0-------2p0--|------------------------2p0-|
|--2p0h2-----2p0h2-----2p0h2------|----------------------------|
|---------------------------------|---------------------4------|
|---------------------------------|--5---5---5--5-5--4---------|
|---------------------------------|---------------------4------|
|---------------------------------|--5---5---5--5-5--4---------|

  

|--------2p0-------2p0-------2p0--|-----------------------------|
|--2p0h2-----2p0h2-----2p0h2------|---------------------------0-|
|---------------------------------|--6--------------------------|
|---------------------------------|----------------9------4h6---|
|---------------------------------|----6h9-9-9-----9-9--6-6-----|
|---------------------------------|--7-----7-7----11------------|



|--------------------------|---------------------------|---------------|
|--------------------------|---------------------------|--4------------|
|--------------------------|--4-----------2------------|---------------|
|----------------x-0----2--|--2p0-0--------------------|---------------|
|-------------6------------|-----------6--4--4-4----2--|----------4----|
|--4---4-4----2----2-------|--0---0-------2----2-2-----|--4---4-4---7--|



|---------------------0----|------------------------------|
|---------------------0----|----------------------------0-|
|------4---4--4-4--2--4----|--6---------------------------|
|--5---5---5--5-5--4-------|------------------------4h6---|
|--4------------------4----|-----9-9----9-9----9--6-6-----|
|--5---5---5--5-5--4-------|--7--7---7------11------------|


|-------------------------||
|-------------------------||
|-------------------------||
|-------------------0--2--||
|-------------4h6-6-------||
|--4---4-4----2-----2-----||

TOP cifras de Andy Mckee

  1. Rylynn Intro
  2. I'll Be Over You(cover Toto)
  3. Hunter's Moon
  4. Art Of Motion
  5. Ebon Coast
  6. Layover
  7. For My Father
  8. Spirit of the West (part. Don Ross)
  9. Ebon Coast Intro
  10. Africa

Pela Web