Cifras Web
Andy Mckee

Dreamcatcher

Andy Mckee

14 acessos

Afinação| D A D F# A E



||--------0-----------------|--------0-----------------|
||--0-------0---------------|--0-------0---------------|
||----5-------0-3---------3-|----5-------0-3---------3-|
||------0----------0--------|------0----------0--------|
||----------------------0---|----------------------0---|
||--5-----------4-----------|--5-----------4-----------|



|--------0-----------------|--------0-----------|
|--0-------0---------------|--0-------0---------|
|----5-------0-3---------3-|----5-------5-5-----|
|------0----------0--------|------0-------------|
|----------------------0---|--------------------|
|--5-----------4-----------|--5-----------5-----|



|--------3-3---0h2-2-2p0--------0---|-------0--------------0-----------|
|--0-----0-0---0----------0-4-5---0-|---------0-0------0-----0-0-------|
|----5---------0--------------------|----8---------------5-------------|
|------0-----------0----------------|------11--------------7-----------|
|----------x------------------------|---------9-x------------7-x-------|
|--5-------x-4-4--------------------|--9--------x-9--7-7-------x-0-4-0-|



|--------3-3---0h2-2-2p0--------0---|--2-----0-----0---------0---|
|--0-----0-0---0----------0-4-5---0-|----0-----0---0-----4-----0-|
|----5---------0--------------------|------0-----0-0-----0-------|
|------0-----------0----------------|--------------0-----2-------|
|----------x------------------------|--2-----------5---0-0-------|
|--5-------x-4-4--------------------|--------4-------------------|



|--------5-5---------5h7-7---|--9-----10-----5-7-5-0-----------|
|--------5-5---5-------------|----0------0-----------5-4-0-----|
|------7---------7-----------|------0------0---------------0h5-|
|----7-------------7---------|---------------------------------|
|----------x-0-0---------x---|---------------0-----------------|
|--5-------x-------------x-9-|--9------------------------------|



|--------3-3---0h2-2-2p0--------0---|--2-----0-----0---------0---|
|--0-----0-0---0----------0-4-5---0-|----0-----0---0-----4-----0-|
|----5---------0--------------------|------0-----0-0-----0-------|
|------0-----------0----------------|--------------0-----2-------|
|----------x------------------------|--2-----------5---0-0-------|
|--5-------x-4-4--------------------|--------4-------------------|



|---------0-0----------0-0---|---------0-0----------0-0---|
|-------------0-0----------0-|-------------0-0----------0-|
|-------8------------8-------|-------8------------8-------|
|----11-----------11---------|----11-----------11---------|
|-----------9---7--------9---|-----------9---7--------9---|
|--9-------------------------|--9-------------------------|



|---------0-0----------0-0---|---------0-0----------0-0---|
|-------------0-0----------0-|-------------0-0----------0-|
|-------8------------8-------|-------8------------8-------|
|----11-----------11---------|----11-----------11---------|
|-----------9---7--------9---|-----------9---7--------9---|
|--7-------------------------|--7-------------------------|



|--------3-3---0h2-2-2p0--------0---|-------0--------------0-----------|
|--0-----0-0---0----------0-4-5---0-|---------0-0------0-----0-0-------|
|----5---------0--------------------|----8---------------5-------------|
|------0-----------0----------------|------11--------------7-----------|
|----------x------------------------|---------9-x------------7-x-------|
|--5-------x-4-4--------------------|--9--------x-9--7-7-------x-0-4-0-|



|--------3h-3---0h2-2-2p0--------0---|--2-----0-----0--------0---|
|--0-----0h-0---0----------0-4-5---0-|----0-----0---0-----4----0-|
|----5----------0--------------------|------0-----0-0-----0------|
|------0------------0----------------|--------------0-----2------|
|-----------x------------------------|--2-----------5---0-0------|
|--5--------x-4-4--------------------|--------4------------------|



|---------0-0----------0-0---|---------0-0----------0-0---|
|-------------0-0----------0-|-------------0-0----------0-|
|-------8------------8-------|-------8------------8-------|
|----11-----------11---------|----11-----------11---------|
|-----------9---7--------9---|-----------9---7--------9---|
|--9-------------------------|--9-------------------------|



|--7------7------------7-----|---------7------------7/9-----|
|-----------0------------0---|-----------0--------------0---|
|-------8-----8------8-----8-|-------8-----8------8-------0-|
|----11-----------11---------|----11-----------11-----------|
|---------------9------------|---------------9--------------|
|--9-------------------------|--9---------------------------|



|----------0-------------0------|---------0-------------0-----|
|--12--------12------------12---|-----------12------------0---|
|--------8------8------8------8-|-------8------8------8-----0-|
|-----11------------11----------|----11------------11---------|
|-----------------9-------------|----------------9------------|
|---9---------------------------|--9--------------------------|



|--7------7------------7-----|---------7------------7/9-----|
|-----------0------------0---|-----------0--------------0---|
|-------8-----8------8-----8-|-------8-----8------8-------0-|
|----11-----------11---------|----11-----------11-----------|
|---------------9------------|---------------9--------------|
|--9-------------------------|--9---------------------------|



|----------0-------------0------|---------0-------------0-----|
|--12--------12------------12---|-----------12------------0---|
|--------8------8------8------8-|-------8------8------8-----0-|
|-----11------------11----------|----11------------11---------|
|-----------------9-------------|----------------9------------|
|---9---------------------------|--9--------------------------|


Obs1.: Esse "t” é o tapping.


|----------------------------0-|----------------------------0-|
|------------0--------0--------|------------0--------0--------|
|-------0------0--------0------|-------0------0--------0------|
|-----0-------------0----------|-----0-------------0----------|
|---------9t-----7t-------9t---|---------7t-----5t-------7t---|
|--7t--------------------------|--5t--------------------------|



|----------------------------0-|---------------------------|
|------------0--------0--------|-----------------0---------|
|-------0------0--------0------|-------0-------------------|
|-----0-------------0----------|-----0---------------------|
|---------9t-----7t-------9t---|---------11t-12t---5t------|
|--7t--------------------------|--9t-----------------------|



|--------3-3---0h2-2-2p0-------0---|-------0--------------0-----------|
|--0-----0-0---0---------0-4-5---0-|---------0-0------0-----0-0-------|
|----5---------0-------------------|----8---------------5-------------|
|------0-----------0---------------|------11--------------7-----------|
|----------x-----------------------|---------9-x------------7-x-------|
|--5-------x-4-4-------------------|--9--------x-9--7-7-------x-0-4-0-|



|--------3-3---0h2-2-2p0-------0---|--2-----0-----0---------0---|
|--0-----0-0---0---------0-4-5---0-|----0-----0---0-----4-----0-|
|----5---------0-------------------|------0-----0-0-----0-------|
|------0-----------0---------------|--------------0-----2-------|
|----------x-----------------------|--2-----------5---0-0-------|
|--5-------x-4-4-------------------|--------4-------------------|



|--------5-5---------5-7-7---|--9-----10-----5-7-5-0------------|
|--------5-5---5-------------|----0------0------------5-4-0-----|
|------7---------7-----------|------0------0----------------0h5-|
|----7-------------7---------|----------------------------------|
|----------x-0-0---------x---|---------------0------------------|
|--5-------x-------------x-9-|--9-------------------------------|



|--------3-3---0h2-2-2p0-------0---|--2-----0-----0---------0---|
|--0-----0-0---0---------0-4-5---0-|----0-----0---0-----4-----0-|
|----5---------0-------------------|------0-----0-0-----0-------|
|------0-----------0---------------|--------------0-----2-------|
|----------x-----------------------|--2-----------5---0-0-------|
|--5-------x-4-4-------------------|--------4-------------------|



|---------0-0----------0-0---|---------0-0----------0-0---|
|-------------0-0----------0-|-------------0-0----------0-|
|-------8------------8-------|-------8------------8-------|
|----11-----------11---------|----11-----------11---------|
|-----------9---7--------9---|-----------9---7--------9---|
|--9-------------------------|--9-------------------------|



|---------0-0----------0-0---|---------0-0----------0-0---|
|-------------0-0----------0-|-------------0-0----------0-|
|-------8------------8-------|-------8------------8-------|
|----11-----------11---------|----11-----------11---------|
|-----------9---7--------9---|-----------9---7--------9---|
|--7-------------------------|--7-------------------------|



|--7------7------------7-----|---------7------------7/9-------|
|-----------0------------0---|-----------0--------------0-----|
|-------8-----8------8-----8-|-------8-----8------8-------0---|
|----11-----------11---------|----11-----------11-------------|
|---------------9------------|---------------9----------------|
|--9-------------------------|--9-----------------------------|



|----------0-------------0------|---------0-------------0-----|
|--12--------12------------12---|-----------12------------0---|
|--------8------8------8------8-|-------8------8------8-----0-|
|-----11------------11----------|----11------------11---------|
|-----------------9-------------|----------------9------------|
|---9---------------------------|--9--------------------------|



|--7------7------------7-----|---------7------------7/9-------|
|-----------0------------0---|-----------0--------------0-----|
|-------8-----8------8-----8-|-------8-----8------8-------0---|
|----11-----------11---------|----11-----------11-------------|
|---------------9------------|---------------9----------------|
|--9-------------------------|--9-----------------------------|



|----------0-------------0------|---------0-------------0-----|
|--12--------12------------12---|-----------12------------0---|
|--------8------8------8------8-|-------8------8------8-----0-|
|-----11------------11----------|----11------------11---------|
|-----------------9-------------|----------------9------------|
|---9---------------------------|--9--------------------------|



|----------------------------0-|----------------------------0-|
|------------0--------0--------|------------0--------0--------|
|-------0------0--------0------|-------0------0--------0------|
|-----0-------------0----------|-----0-------------0----------|
|---------9t-----7t-------9t---|---------7t-----5t-------7t---|
|--7t--------------------------|--5t--------------------------|



|-------------------------0-|---------------------|--------0-----------------|
|----------0--------0-------|----------------0----|--0-------0---------------|
|------0-----0--------0-----|------0--------------|----5-------0-3---------3-|
|----0------------0---------|----0----------------|------0----------0--------|
|--------9t----7t-------9t--|--------11t-12t---5--|----------------------0---|
|-7t------------------------|-9t------------------|--5-----------4-----------|



|--------0-----------------|--------0-----------------|
|--0-------0---------------|--0-------0---------------|
|----5-------0-3---------3-|----5-------0-3---------3-|
|------0----------0--------|------0----------0--------|
|----------------------0---|----------------------0---|
|--5-----------4-----------|--5-----------4-----------|


|--------0----------||
|--0-------0--------||
|----5-------5-5----||
|------0------------||
|-------------------||
|--5-----------5----||

TOP cifras de Andy Mckee

  1. Rylynn Intro
  2. I'll Be Over You(cover Toto)
  3. Hunter's Moon
  4. Art Of Motion
  5. Ebon Coast
  6. Layover
  7. For My Father
  8. Spirit of the West (part. Don Ross)
  9. Ebon Coast Intro
  10. Africa

Pela Web