Cifras Web
Andy Mckee

Drifting

Andy Mckee

14 acessos

                                                NH

D|-----------------------|---------------------12-|   (4x)
A|-----------------------|---------------------12-|
G|-----------------------|---------------------12-|
D|-----------------------|------------------------|
A|--2--x-x-x--2---x-x--x-|--2--x-x-x--x-----x-----|
D|--2--x-x-x--2---x-x--x-|--2--x-x-x--x-----x-----|



D|---------0----------------|-----------------0--------|
A|------------0-------------|--------0--------------0--|
G|-----11t--------0------6t-|-----0-----6t-------------|
D|--------------------------|--------------------------|
A|--2------x-----2----x-----|--5-----x-----7-----x-----|
D|--2------x-----2----x-----|--5-----x-----7-----x-----|



D|--------0--------x--------|--------0----------0-------|
A|-----------0-----x--------|-----0-------------------0-|
G|-----6t-------0--------4t-|-----------9t--------6t----|
D|--------------------------|---------------------------|
A|--2-----x-----2-----x-----|--5-----x-------7-----x----|
D|--2-----x-----2-----x-----|--5-----x-------7-----x----|



D|---------------0---------------|-----------------0--------|
A|-----------------0-------------|--------0--------------0--|
G|-----11t-12p11------0-------6t-|-----0-----6t-------------|
D|-------------------------------|--------------------------|
A|--2----------x------2----x-----|--5-----x-----7-----x-----|
D|--2----------x------2----x-----|--5-----x-----7-----x-----|



D|--------0--------x--------|--------0----------0-------|
A|-----------0-----x--------|-----0-------------------0-|
G|-----6t-------0--------4t-|-----------9t--------6t----|
D|--------------------------|---------------------------|
A|--2-----x-----2-----x-----|--5-----x-------7-----x----|
D|--2-----x-----2-----x-----|--5-----x-------7-----x----|




D|---------------------0-----0--|--0--0---0---0----|
A|---------------T--------0--0--|--0--0---0---0----|
G|--------T------11/9--------9--|--9--9---9---9h11-|
D|-----9t-11h12--------------0--|--0--0---0---0----|
A|---------------------------9--|--9--9---9---9----|
D|--9t-----------------------0--|--0--0---0---0----|



D|---------------------0-----0--|---0--0---0---------|
A|---------------T--------0--0--|---0--0---0---------|
G|--------T------11/9--------9--|---9--9---9h11------|
D|-----9t-11h12--------------0--|---0--0---0-----9p7-|
A|---------------------------9--|---9--9---9---------|
D|--9------------------------0--|---0--0---0---------|


                                       NH

D|----------0----------------|----------12-|
A|-------------T----0--------|----------12-|
G|-----T-------9/7-----6--6--|--6--6----12-|
D|-----7/9-------------7--7--|--7--7-------|
A|--5------------------7--7--|--7--7-------|
D|--5------------------7--7--|--7--7-------|


                                         NH

D|-----------0----------0--|--0--0---0----12-|
A|---------------T---0--0--|--0--0---0----12-|
G|-----T---------9/7----2--|--2--2---2----12-|
D|-----7/9--------------0--|--0--0---0-------|
A|--5-------------------0--|--0--0---0-------|
D|--5-------------------0--|--0--0---0-------|


                                              NH

D|--------0----------0----|--------0-----------12-|
A|-----------0-------0----|--------0-----------12-|
G|--T--0-------------0-4t-|--------0-----------12-|
D|--4-----------0h2-------|-----0-----------------|
A|--2---------------------|--5--------9t----7-----|
D|--2---------------------|--5-----------7--------|


                                              NH

D|--------0----------0----|--------0-----------12-|
A|-----------0-------0----|--------0-----------12-|
G|--T--0-------------0-4t-|--------0-----------12-|
D|--4-----------0h2-------|-----0-----------------|
A|--2---------------------|--5--------9t----7-----|
D|--2---------------------|--5-----------7--------|



D|--------0----------0----|--------0-----------0-|
A|-----------0-------0----|--------0-----------0-|
G|--T---0------------0-4t-|--------0-----------0-|
D|--4-----------0h2-------|-----0----------------|
A|--2---------------------|--5--------9t----7----|
D|--2---------------------|--5-----------7-------|


                NH   NH              NH

D|------0--------12----7-|-----0------12-|
A|---------0-----12----7-|-----0------12-|
G|--11t-------0--12----7-|-----0------12-|
D|-----------------------|---------------|
A|---2--------2----------|--2------2-----|
D|---2--------2----------|--2------2-----|



|---------0----------------|-----------------0--------|
|------------0-------------|--------0--------------0--|
|-----11t--------0------6t-|-----0-----6t-------------|
|--------------------------|--------------------------|
|--2------x-----2----x-----|--5-----x-----7-----x-----|
|--2------x-----2----x-----|--5-----x-----7-----x-----|



D|--------0--------x--------|--------0----------0-------|
A|-----------0-----x--------|-----0-------------------0-|
G|-----6t-------0--------4t-|-----------9t--------6t----|
D|--------------------------|---------------------------|
A|--2-----x-----2-----x-----|--5-----x-------7-----x----|
D|--2-----x-----2-----x-----|--5-----x-------7-----x----|



D|---------------0---------------|-----------------0--------|
A|-----------------0-------------|--------0--------------0--|
G|-----11t-12p11------0-------6t-|-----0-----6t-------------|
D|-------------------------------|--------------------------|
A|--2----------x------2----x-----|--5-----x-----7-----x-----|
D|--2----------x------2----x-----|--5-----x-----7-----x-----|



|--------0--------x--------|--------0----------0-------|
|-----------0-----x--------|-----0-------------------0-|
|-----6t-------0--------4t-|-----------9t--------6t----|
|--------------------------|---------------------------|
|--2-----x-----2-----x-----|--5-----x-------7-----x----|
|--2-----x-----2-----x-----|--5-----x-------7-----x----|



D|---------------------0-----0--|--0--0---0---0----|
A|---------------T--------0--0--|--0--0---0---0----|
G|--------T------11/9--------9--|--9--9---9---9h11-|
D|-----9t-11h12--------------0--|--0--0---0---0----|
A|---------------------------9--|--9--9---9---9----|
D|--9t-----------------------0--|--0--0---0---0----|



D|---------------------0-----0--|---0--0---0---------|
A|---------------T--------0--0--|---0--0---0---------|
G|--------T------11/9--------9--|---9--9---9h11------|
D|-----9t-11h12--------------0--|---0--0---0-----9p7-|
A|---------------------------9--|---9--9---9---------|
D|--9------------------------0--|---0--0---0---------|


                                       NH

D|----------0----------------|----------12-|
A|-------------T----0--------|----------12-|
G|-----T-------9/7-----6--6--|--6--6----12-|
D|-----7/9-------------7--7--|--7--7-------|
A|--5------------------7--7--|--7--7-------|
D|--5------------------7--7--|--7--7-------|


                                         NH

D|-----------0----------0--|--0--0---0----12-|
A|---------------T---0--0--|--0--0---0----12-|
G|-----T---------9/7----2--|--2--2---2----12-|
D|-----7/9--------------0--|--0--0---0-------|
A|--5-------------------0--|--0--0---0-------|
D|--5-------------------0--|--0--0---0-------|


                                              NH

D|--------0----------0----|--------0-----------12-|
A|-----------0-------0----|--------0-----------12-|
G|--T--0-------------0-4t-|--------0-----------12-|
D|--4-----------0h2-------|-----0-----------------|
A|--2---------------------|--5--------9t----7-----|
D|--2---------------------|--5-----------7--------|


                                              NH

D|--------0----------0----|--------0-----------12-|
A|-----------0-------0----|--------0-----------12-|
G|--T--0-------------0-4t-|--------0-----------12-|
D|--4-----------0h2-------|-----0-----------------|
A|--2---------------------|--5--------9t----7-----|
D|--2---------------------|--5-----------7--------|



D|--------0----------0----|--------0-----------0-|
A|-----------0-------0----|--------0-----------0-|
G|--T---0------------0-4t-|--------0-----------0-|
D|--4-----------0h2-------|-----0----------------|
A|--2---------------------|--5--------9t----7----|
D|--2---------------------|--5-----------7-------|


                                                   NH

D|------------------------------|-------------------12-|
A|------------------------------|-------------------12-|
G|--------T---------T-----9---9-|---9---9----9---9--12-|
D|-----9t-11h12/11--9p7--10--10-|--10--10---10--10-----|
A|-----------------------10--10-|--10--10---10--10-----|
D|--9t-------------------10--10-|--10--10---10--10-----|


                                    NH

D|--0---0---0--0--0--0-|-0--0-----0--12-|-0---0---0--0--0--0-|
A|--0---0---0--0--0--0-|-0--0-----0--12-|-0---0---0--0--0--0-|
G|--0---0---0--0--0--4-|-4--4/6---6--12-|-0---0---0--0--0--4-|
D|--4---4---4--4--4--5-|-5--5/7---7-----|-4---4---4--4--4--5-|
A|--2---2---2--2--2--5-|-5--5/7---7-----|-2---2---2--2--2--5-|
D|--2---2---2--2--2--5-|-5--5/7---7-----|-2---2---2--2--2--5-|


               NH

D|--0--0-----0--12-|-0---0---0--0--0--0-|
A|--0--0-----0--12-|-0---0---0--0--0--0-|
G|--4--4/6---6--12-|-0---0---0--0--0--4-|
D|--5--5/7---7-----|-4---4---4--4--4--5-|
A|--5--5/7---7-----|-2---2---2--2--2--5-|
D|--5--5/7---7-----|-2---2---2--2--2--5-|


               NH

D|--0--0-----0--12-|-0---0---0--0--0--0-|
A|--0--0-----0--12-|-0---0---0--0--0--0-|
G|--4--4/6---6--12-|-0---0---0--0--0--4-|
D|--5--5/7---7-----|-4---4---4--4--4--5-|
A|--5--5/7---7-----|-2---2---2--2--2--5-|
D|--5--5/7---7-----|-2---2---2--2--2--5-|


               NH

D|--0--0-0---0--12-|---------------------0-----0-|
A|--0--0-0---0--12-|---------------T--------0--0-|
G|--4--4/6---6--12-|-------T-------11/9--------9-|
D|--5--5/7---7-----|----9t-11h12---------------0-|
A|--5--5/7---7-----|---------------------------9-|
D|--5--5/7---7-----|-9t------------------------0-|



D|--0--0---0---0----|----------------------0-----0-|
A|--0--0---0---0----|---------------T---------0--0-|
G|--9--9---9---9h11-|-------T-------14/11--------9-|
D|--0--0---0---0----|----9t-11h12----------------0-|
A|--9--9---9---9----|----------------------------9-|
D|--0--0---0---0----|-9t-------------------------0-|


                                                           NH

D|---0--0---0---------|---------0----------------|----------12-|
A|---0--0---0---------|------------T----0--------|----------12-|
G|---9--9---9h11------|----T-------9/7-----6--6--|--6--6----12-|
D|---0--0---0-----9p7-|----7/9-------------7--7--|--7--7-------|
A|---9--9---9---------|-5------------------7--7--|--7--7-------|
D|---0--0---0---------|-5------------------7--7--|--7--7-------|


                                       NH

D|----------0----------------|----------12-|
A|-------------T----0--------|----------12-|
G|-----T-------9/7-----6--6--|--6--6----12-|
D|-----7/9-------------7--7--|--7--7-------|
A|--5------------------7--7--|--7--7-------|
D|--5------------------7--7--|--7--7-------|


                                         NH

D|-----------0----------0--|--0--0---0----12-|
A|---------------T---0--0--|--0--0---0----12-|
G|-----T---------9/7----2--|--2--2---2----12-|
D|-----7/9--------------0--|--0--0---0-------|
A|--5-------------------0--|--0--0---0-------|
D|--5-------------------0--|--0--0---0-------|


                                              NH

D|--------0----------0----|--------0-----------12-|
A|-----------0-------0----|--------0-----------12-|
G|--T--0-------------0-4t-|--------0-----------12-|
D|--4-----------0h2-------|-----0-----------------|
A|--2---------------------|--5--------9t----7-----|
D|--2---------------------|--5-----------7--------|


                                              NH

D|--------0----------0----|--------0-----------12-|
A|-----------0-------0----|--------0-----------12-|
G|--T--0-------------0-4t-|--------0-----------12-|
D|--4-----------0h2-------|-----0-----------------|
A|--2---------------------|--5--------9t----7-----|
D|--2---------------------|--5-----------7--------|



D|--------0----------0----|--------0-----------0-|
A|-----------0-------0----|--------0-----------0-|
G|--T---0------------0-4t-|--------0-----------0-|
D|--4-----------0h2-------|-----0----------------|
A|--2---------------------|--5--------9t----7----|
D|--2---------------------|--5-----------7-------|


                NH   NH              NH

D|------0--------12----7-|-----0------12-|
A|---------0-----12----7-|-----0------12-|
G|--11t-------0--12----7-|-----0------12-|
D|-----------------------|---------------|
A|---2--------2----------|--2------2-----|
D|---2--------2----------|--2------2-----|



D|---------0----------------|-----------------0--------|
A|------------0-------------|--------0--------------0--|
G|-----11t--------0------6t-|-----0-----6t-------------|
D|--------------------------|--------------------------|
A|--2------x-----2----x-----|--5-----x-----7-----x-----|
D|--2------x-----2----x-----|--5-----x-----7-----x-----|



D|--------0--------x--------|--------0----------0-------|
A|-----------0-----x--------|-----0-------------------0-|
G|-----6t-------0--------4t-|-----------9t--------6t----|
D|--------------------------|---------------------------|
A|--2-----x-----2-----x-----|--5-----x-------7-----x----|
D|--2-----x-----2-----x-----|--5-----x-------7-----x----|



D|---------------0---------------|-----------------0--------|
A|-----------------0-------------|--------0--------------0--|
G|-----11t-12p11------0-------6t-|-----0-----6t-------------|
D|-------------------------------|--------------------------|
A|--2----------x------2----x-----|--5-----x-----7-----x-----|
D|--2----------x------2----x-----|--5-----x-----7-----x-----|



D|--------0--------x--------|--------0----------0-------|
A|-----------0-----x--------|-----0-------------------0-|
G|-----6t-------0--------4t-|-----------9t--------6t----|
D|--------------------------|---------------------------|
A|--2-----x-----2-----x-----|--5-----x-------7-----x----|
D|--2-----x-----2-----x-----|--5-----x-------7-----x----|


                                              NH
D|-----------------------|---------------------12-|4
A|-----------------------|---------------------12-|v
G|-----------------------|---------------------12-|e
D|-----------------------|------------------------|z
A|--2--x-x-x--2---x-x--x-|--2--x-x-x--x-----x-----|e
D|--2--x-x-x--2---x-x--x-|--2--x-x-x--x-----x-----|s

TOP cifras de Andy Mckee

  1. Rylynn Intro
  2. I'll Be Over You(cover Toto)
  3. Hunter's Moon
  4. Art Of Motion
  5. Ebon Coast
  6. Layover
  7. For My Father
  8. Spirit of the West (part. Don Ross)
  9. Ebon Coast Intro
  10. Africa

Pela Web