Cifras Web
Andy Mckee

Ebon Coast Intro

Andy Mckee

17 acessos

Intro.

Obs.: Esse NH é o Natural Harmonic( Harmônico natural ).
  
e|------NH-------NH----|------NH-------NH----| 
B|------12-------12----|------12-------12----| 
G|------12-------12----|------12-------12----| 
D|---------------------|---------------------| 
A|---10-------------10-|---10-------------10-| 
E|-0--------X--0-------|-0--------X--0-------| 
                                                     (2x)
e|-----NH------NH--|-----NH------NH--|         
B|-----7-------7---|-----7-------7---|         
G|-----7-------7---|-----7-------7---|         
D|-----------------|-----------------|         
A|---5-----------5-|---5-----------5-|         
E|-0------X--0-----|-0------X--0-----|         



e|------NH----------NH----|------NH----------NH----| 
B|------12----------12----|------12----------12----| 
G|------12----------12----|------12----------12----| 
D|------------------------|------------------------|
A|---10----------------10-|---10----------------10-| 
E|-0--------X--X--0-------|-0--------X--X--0-------|  
                                                        (2x) 
e|-----NH---------NH--|-----NH---------NH--|         
B|-----7----------7---|-----7----------7---|         
G|-----7----------7---|-----7----------7---|         
D|--------------------|--------------------|         
A|---5--------------5-|---5--------------5-|         
E|-0------X--X--0-----|-0------X--X--0-----|         

TOP cifras de Andy Mckee

  1. Rylynn Intro
  2. I'll Be Over You(cover Toto)
  3. Hunter's Moon
  4. Art Of Motion
  5. Ebon Coast
  6. Layover
  7. For My Father
  8. Spirit of the West (part. Don Ross)
  9. Ebon Coast Intro
  10. Africa

Pela Web