Cifras Web
Andy Mckee

Heathers Song

Andy Mckee

13 acessos

Heather's Song

Intro.: afinação BEADF#B 

(Afinar assim)

B3
F#4
D3
A2
E2
B1

OBS.: Esse NH é o Natural Harmonic( Harmônico natural ).
|------NH----NH---|------NH---------NH-----------|
|-NH---7--NH-12---|-NH---7--NH------12-NH--------| 
|-5-------7--12---|-5-------7--NH------12--------| 
|-5---------------|-5----------7-------12--------|
|-----------------|------------7-----------NH----|
|---------------8-|--------------10--------12--0-| 

|------NH----NH---|------NH---------NH------------|
|-NH---7--NH-12---|-NH---7--NH------12-NH---------| 
|-5-------7--12---|-5-------7--NH------12---------| 
|-5---------------|-5----------7-------12---------|
|-----------------|------------7----------NH------|
|---------------8-|--------------10-------12--0-8-|

(00:22)

|-------------------------------------2---3-------|
|-3-3---------3---3-------------3-----3---3-----3-|
|-0-2p0---2h4-----2p0-------0---0---0-----------0-|
|---0-------------------0h2-----2---------------2-|
|-0-x---3-------3-x---3-------3-x-3-----3---x-3---|
|-------------------------------------------------|



|---------------------------------------2---3-------|
|-3---3---------3---3-------------3-----3---3-----7-|
|-0---2p0---2h4-----2p0-------0---0---0-----------0-|
|-2---0-------------------0h2-----2-------------0---|
|---3-x---3-------3-x---3-------3-x-3-----3---------|
|---------------------------------------------x-----|



|---------------5---------0---------------5-------|
|---------7h8---------7-------------7h8---------7-|
|---------0-----------0-------------0-----------0-|
|-------0-----------0---------0---0-----------0---|
|-------------------------------------------------|
|-0-0-x-------0---x-----0---x---0-------0---x-----|



|-----------0----------0---3-------3-------|
|---0-----0--------5-------3-------3-----3-|
|-----7------------7-------5---0---5-----0-|
|-------9----------7---------x---0---0---0-|
|------------------------x-------------x---|
|-0-----------8--x---7---------------------|



|-------------------------------------2---3-------|
|-3-3---------3---3-------------3-----3---3-----3-|
|-0-2p0---2h4-----2p0-------0---0---0-----------0-|
|---0-------------------0h2-----2---------------2-|
|-0-x---3-------3-x---3-------3-x-3-----3---x-3---|
|-------------------------------------------------|



|---------------------------------------2---3-------|
|-3---3---------3---3-------------3-----3---3-----7-|
|-0---2p0---2h4-----2p0-------0---0---0-----------0-|
|-2---0-------------------0h2-----2-------------0---|
|---3-x---3-------3-x---3-------3-x-3-----3---------|
|---------------------------------------------x-----|



|---------------5---------0---------------5-------|
|---------7h8---------7-------------7h8---------7-|
|---------0-----------0-------------0-----------0-|
|-------0-----------0---------0---0-----------0---|
|-------------------------------------------------|
|-0-0-x-------0---x-----0---x---0-------0---x-----|


                                        (00:57)

|-----------0----------0---3-------3-----NH-|
|---0-----0--------5-------3-------3-----12-|
|-----7------------7-------5---0---5-----12-|
|-------9----------7---------x---0---0---12-|
|------------------------x-------------x----|
|-0-----------8--x---7----------------------|


OBS.: Parte praticamente só com harmônicos.

|---------NHNH-------------------------|
|---------1212----------------NHNH-----|
|-----NH--1212--------NH------1212-----|
|-----12--1212--------12------1212-----|
|---10----------1010------10--------10-|
|-8--------x--8---------8------x---8---|



|----------------NHNH-------------NH---------|
|----------------1212----------NH-12---------|
|----NH------NH--1212-----NH---12------NH----|
|----12------12--1212-----12-----------12----|
|-10------10----------0h9----10--------------|
|-------8---------x------------------x----10-|



|-------------NHNH---------------------|
|-------------1212--------------NHNH---|
|----NH----NH-1212------NH------1212---|
|----12----12-1212------12---12-1212---|
|--------------------------------------|
|-10----10-----x---12-12---12----x---8-|



|-------------NHNH----------------------|
|-------------1212---------------NHNH---|
|---NH----NH--1212--------NH-----1212---|
|---12----12--1212--------12-----1212---|
|------10-----------1010-----10------10-|
|-8------------x--8--------8----x-8-----|



|----------------NHNH-------------NH---------|
|----------------1212----------NH-12---------|
|----NH------NH--1212-----NH---12------NH----|
|----12------12--1212-----12-----------12----|
|-10------10----------0h9----10--------------|
|-------8---------x------------------x----10-|



|-------------NHNH---------------------|
|-------------1212--------------NHNH---|
|----NH----NH-1212------NH------1212---|
|----12----12-1212------12---12-1212---|
|--------------------------------------|
|-10----10-----x---12-12---12----x---8-|



(01:11)

|-------------------------------------2---3-------|
|-3-3---------3---3-------------3-----3---3-----3-|
|-0-2p0---2h4-----2p0-------0---0---0-----------0-|
|---0-------------------0h2-----2---------------2-|
|-0-x---3-------3-x---3-------3-x-3-----3---x-3---|
|-------------------------------------------------|



|---------------------------------------2---3-------|
|-3---3---------3---3-------------3-----3---3-----7-|
|-0---2p0---2h4-----2p0-------0---0---0-----------0-|
|-2---0-------------------0h2-----2-------------0---|
|---3-x---3-------3-x---3-------3-x-3-----3---------|
|---------------------------------------------x-----|



|---------------5---------0---------------5-------|
|---------7h8---------7-------------7h8---------7-|
|---------0-----------0-------------0-----------0-|
|-------0-----------0---------0---0-----------0---|
|-------------------------------------------------|
|-0-0-x-------0---x-----0---x---0-------0---x-----|



|-----------0----------0---3-------3-----NH-|
|---0-----0--------5-------3-------3-----12-|
|-----7------------7-------5---0---5-----12-|
|-------9----------7---------x---0---0---12-|
|------------------------x-------------x----|
|-0-----------8--x---7----------------------|



|---------NH---------------NH------------NH-------NH-|
|---------12------NH-------12-NH---------12-NH----12-|
|---NH----12------12-NH-------12------------12----12-|
|---12----12---------12------------------------------|
|------10------10-------10-------10---10-------10----|
|-8----------8----------------------8----------------|



|------------NH---NH----------------|
|------------12---12-NH-------NH----|
|------NH----12------12-NH----12----|
|------12---------------12----------|
|-9h10----10---------------10-------|
|---------------8----------------12-|



|---------NH---------------NH------------NH-------NH-|
|---------12------NH-------12-NH---------12-NH----12-|
|---NH----12------12-NH-------12------------12----12-|
|---12----12---------12------------------------------|
|------10------10-------10-------10---10-------10----|
|-8----------8----------------------8----------------|



|------------NH---NH-------------|
|------------12---12-NH-------NH-|
|------NH----12------12-NH----12-|
|------12---------------12-------|
|-9h10----10---------------10----|
|---------------8----------------|


OBS.: Esse slide faz na corda toda(é só ouvir que é fácil de fazer). 


|-0---------8---------8\0----1-|
|-0-8-------8---------8\0----1-|
|-0-8h9-----9---------9\0----2-|
|-0-8-10---10---10---10\0------|
|-------------x----8-------x---|
|-x------8---------------------|



|---1-------1h3---1-------3-3---------3-------|
|---1-------1-----1---3-----3---3-----------0-|
|---2---2---2-----2---5-----5-----5-----------|
|-3---x---3-----3-----5-----5-------5---------|
|-------------------x-------------------x-0---|
|-----------------------0---x-0---------------|



|-----3--------3-----------8---------8\0----1-|
|-----0---0--------8-------8---------8\0----1-|
|-5---5-----5------8h9-----9---------9\0----2-|
|---5-5-------5----8-10---10---10---10\0------|
|-----x-0--------x------8----x----8--8\0--x---|
|---------------------------------------------|



|---1-------1h3---1-------3-3---------3-------|
|---1-------1-----1---3-----3---3-----------0-|
|---2---2---2-----2---5-----5-----5-----------|
|-3---x---3-----3-----5-----5-------5---------|
|-------------------x-------------------x-0---|
|-----------------------0---x-0---------------|



|-----3---------3-----------8---------7-----|
|-----0---0---------8-------8---7h8---8---1-|
|-5---5-----5-------8h9-----9---7-----7---0-|
|---5-5-------5-----8-10---10---9---------3-|
|-----x-0---------x------8----x-----7---x---|
|-------------------------------------------|



|------0----------0-----|------0------------0-------|
|------1----1---------1-|------1------1h3---1-----1-|
|------0------0-------3-|------0------0-----------0-|
|----3----------3-----0-|----3------3-----3-----3---|
|-0----x--0---------x---|-0----x--0-----------x-----|
|-----------------------|---------------------------|



|------0----------0-----|-------0------------0-------|
|------1----1---------0-|-------0------0h1---1-----1-|
|------0------0-------0-|---0---0------0-----------0-|
|----3----------3-----3-|-----3------3-----3-----3---|
|------x------------x---|----------------------------|
|-3-------3-------------|-3-----x--3-----------x-----|



|------0----------0-----|------0------------0-------|
|------1----1---------1-|------1------1h3---1-----1-|
|------0------0-------3-|------0------0-----------0-|
|----3----------3-----0-|----3------3-----3-----3---|
|-0----x--0---------x---|-0----x--0-----------x-----|
|-----------------------|---------------------------|



|------0----------0-----|-------0-------------------|
|------1----1---------0-|-------0---------0----8----|
|------0------0-------0-|---0---0------0-------0h9--|
|----3----------3-----3-|-----3------3---------8-10-|
|------x------------x---|---------------------------|
|-3-------3-------------|-3-----x--3---------x------|



|-----8---------8------1----1--------1h3----1------|
|-----8---------8------1----1--------1------1----3-|
|-----9---------9------2----2----2---2------2----5-|
|----10---10---10---------3----x---3------3------5-|
|--8----x----8--8----x------------------------x----|
|--------------------------------------------------|



|---3-3---------3------------3---------3--------|
|-----3---3-----------0------0---0---------8----|
|-----5-----5------------5---5-----5-------8h9--|
|-----5-------5------------5-5-------5-----8-10-|
|-----------------x-0--------x-0---------x------|
|-0---x-0---------------------------------------|



|-----8---------7---NH-|
|-----8---7h8---8---12-|
|-----9---7-----7---12-|
|----10---9---------12-|
|--8----x-----7---x----|
|----------------------|


(02:25)

|-------------NHNH-----------------------|
|-------------1212----------------NHNH---|
|---NH----NH--1212--------NH------1212---|
|---12----12--1212--------12------1212---|
|------10-----------1010-----10-------10-|
|-8------------x--8--------8-----x-8-----|



|----------------NHNH-------------NH---------|
|----------------1212----------NH-12---------|
|----NH------NH--1212-----NH---12------NH----|
|----12------12--1212-----12-----------12----|
|-10------10----------0h9----10--------------|
|-------8---------x------------------x----10-|



|-------------NHNH---------------------|
|-------------1212--------------NHNH---|
|----NH----NH-1212------NH------1212---|
|----12----12-1212------12---12-1212---|
|--------------------------------------|
|-10----10-----x---12-12---12----x---8-|



|-------------NHNH-----------------------|
|-------------1212----------------NHNH---|
|---NH----NH--1212--------NH------1212---|
|---12----12--1212--------12------1212---|
|------10-----------1010-----10-------10-|
|-8------------x--8--------8-----x-8-----|



|----------------NHNH-------------NH---------|
|----------------1212----------NH-12---------|
|----NH------NH--1212-----NH---12------NH----|
|----12------12--1212-----12-----------12----|
|-10------10----------0h9----10--------------|
|-------8---------x------------------x----10-|



|-------------NHNH-------------------|
|-------------1212--------------NHNH-|
|----NH----NH-1212------NH------1212-|
|----12----12-1212------12---12-1212-|
|------------------------------------|
|-10----10-----x---12-12---12----x---|


(02:38)

|-------------------------------------2---3-------|
|-3-3---------3---3-------------3-----3---3-----3-|
|-0-2p0---2h4-----2p0-------0---0---0-----------0-|
|---0-------------------0h2-----2---------------2-|
|-0-x---3-------3-x---3-------3-x-3-----3---x-3---|
|-------------------------------------------------|



|---------------------------------------2---3-------|
|-3---3---------3---3-------------3-----3---3-----7-|
|-0---2p0---2h4-----2p0-------0---0---0-----------0-|
|-2---0-------------------0h2-----2-------------0---|
|---3-x---3-------3-x---3-------3-x-3-----3---------|
|---------------------------------------------x-----|



|---------------5---------0---------------5-------|
|---------7h8---------7-------------7h8---------7-|
|---------0-----------0-------------0-----------0-|
|-------0-----------0---------0---0-----------0---|
|-------------------------------------------------|
|-0-0-x-------0---x-----0---x---0-------0---x-----|



|-----------0----------0---3-------3-----NH-|
|---0-----0--------5-------3-------3-----12-|
|-----7------------7-------5---0---5-----12-|
|-------9----------7---------x---0---0---12-|
|------------------------x-------------x----|
|-0-----------8--x---7----------------------|


(02:54)

|---------NHNH-------------------------|
|---------1212----------------NHNH-----|
|-----NH--1212--------NH------1212-----|
|-----12--1212--------12------1212-----|
|---10----------1010------10--------10-|
|-8--------x--8---------8------x---8---|



|----------------NHNH-------------NH---------|
|----------------1212----------NH-12---------|
|----NH------NH--1212-----NH---12------NH----|
|----12------12--1212-----12-----------12----|
|-10------10----------0h9----10--------------|
|-------8---------x------------------x----10-|



|-------------NHNH---------------------|
|-------------1212--------------NHNH---|
|----NH----NH-1212------NH------1212---|
|----12----12-1212------12---12-1212---|
|--------------------------------------|
|-10----10-----x---12-12---12----x---8-|



|---------NHNH-------------------------|
|---------1212----------------NHNH-----|
|-----NH--1212--------NH------1212-----|
|-----12--1212--------12------1212-----|
|---10----------1010------10--------10-|
|-8--------x--8---------8------x---8---|



|----------------NHNH-------------NH---------|
|----------------1212----------NH-12---------|
|----NH------NH--1212-----NH---12------NH----|
|----12------12--1212-----12-----------12----|
|-10------10----------0h9----10--------------|
|-------8---------x------------------x----10-|



|-------------NHNH---------------------|
|-------------1212--------------NHNH---|
|----NH----NH-1212------NH------1212---|
|----12----12-1212------12---12-1212---|
|--------------------------------------|
|-10----10-----x---12-12---12----x---8-|



|---------NHNH-------------------------|
|---------1212----------------NHNH-----|
|-----NH--1212--------NH------1212-----|
|-----12--1212--------12------1212-----|
|---10----------1010------10--------10-|
|-8--------x--8---------8------x---8---|



|----------------NHNH-------------NH---------|
|----------------1212----------NH-12---------|
|----NH------NH--1212-----NH---12------NH----|
|----12------12--1212-----12-----------12----|
|-10------10----------0h9----10--------------|
|-------8---------x------------------x----10-|



|-------------NHNH---------------------|
|-------------1212--------------NHNH---|
|----NH----NH-1212------NH------1212---|
|----12----12-1212------12---12-1212---|
|--------------------------------------|
|-10----10-----x---12-12---12----x---8-|



|---------NHNH-------------------------|
|---------1212----------------NHNH-----|
|-----NH--1212--------NH------1212-----|
|-----12--1212--------12------1212-----|
|---10----------1010------10--------10-|
|-8--------x--8---------8------x---8---|



|----------------NHNH-------------NH---------|
|----------------1212----------NH-12---------|
|----NH------NH--1212-----NH---12------NH----|
|----12------12--1212-----12-----------12----|
|-10------10----------0h9----10--------------|
|-------8---------x------------------x----10-|


(03:16) FINAL
|-------------------NH-----|
|-------NH----NH----12-----|
|----NH-12----12-----------|
|----12----------12--------|
|--------------------------|
|-10----10-12-12----12-8-8-|

TOP cifras de Andy Mckee

  1. Rylynn Intro
  2. I'll Be Over You(cover Toto)
  3. Hunter's Moon
  4. Art Of Motion
  5. Ebon Coast
  6. Layover
  7. For My Father
  8. Spirit of the West (part. Don Ross)
  9. Ebon Coast Intro
  10. Africa

Pela Web