Cifras Web
Andy Mckee

Keys To The Hovercar

Andy Mckee

11 acessos

Afinação: ECDGAD                                                                     

(Afinar assim)

D5
A4
G4
D4
C4
E3

Introdução:
                                                  
Obs.: Capotraste no terceiro traste.


D|--------------------------0-----|
A|------------------------0---0---|
G|------------0---------0-------0-|
D|--------0-----0-----0-----------|
C|------0-----------0-------------|
E|-0--5-----3-----1---------------|



|----------------|---------------------------|
|----------------|-----0---------------------|
|----------------|--0-----0------------------|
|-0----------3/4-|----------------0----------|
|---3--------1/2-|-------------0--------0----|
|-----1---0------|----------8--------7-----3-|



|--------------------------0-----|----------------|
|------------------------0---0---|----------------|
|------------0---------0-------0-|----------------|
|-------0------0-----0-----------|-0----------3/4-|
|----0-------------0-------------|---3--------1/2-|
|-5--------3-----1---------------|-----1---0------|

                             
|======fim da intro.=========|(00:16)

|----------------------------|--------------------------0-----------|
|-----0----------------------|--------------0-----------------------|
|--0-----0-------------------|--------0--------0--------------------|
|----------------0-----------|-----0-----------------0-----------0--|
|-------------0--------0-----|-----------4--------6-----------0-----|
|----------8--------7-----3--|--5--------------------------3--------|



|--------------------------0-----------|--------------------------0-----------|
|--------------0-----------------------|--------------0-----------------------|
|--------0--------0--------------------|--------0--------0--------------------|
|-----0-----------------0-----------0--|-----0-----------------0-----------0--|
|-----------4--------6-----------0-----|-----------4--------6-----------0-----|
|--5--------------------------3--------|--5--------------------------3--------|



|--------------------------0-----------|--------------------------------------|
|--------------0-----------------------|--------------------------0-----------|
|--------0--------0--------------------|-----------------------0--------------|
|-----0-----------------0--------------|--------0--------0--------------------|
|-----------4--------6--------x-----0--|-----0-----x--4-----6--------x-----0--|
|--5--------------------------x--3-----|--5--------x-----------------x--3-----|



|--------------------------0-----------|--------------------------------------|
|-----------------------0--------------|--------------------------0-----------|
|--------0--------0--------------------|-----------------------0--------------|
|-----0--------------------------------|--------0--------0--------------------|
|-----------x--4-----6--------x-----0--|-----0-----x--4-----6--------x-----0--|
|--5--------x-----------------x--3-----|--5--------x-----------------x--3-----|



|--------------------------0-----------|--4-----------------------------------|
|-----------------------0--------------|--------------------------0-----------|
|--------0--------0--------------------|-----------------------0--------------|
|-----0--------------------------------|--------0--------0--------------------|
|-----------x--4-----6--------x-----0--|-----0-----x--4-----6--------x-----0--|
|--5--------x-----------------x--3-----|--5--------x-----------------x--3-----|



|--------------------5--4--0-----------|--------------------------------------|
|--------------------------0-----------|--------------------------0-----------|
|--------0--------0-----0--------0-----|-----------------------0--------------|
|-----0-----------------------------4--|--------4--------0--------------------|
|-----------x--4-----6--------x--------|-----0-----x--4-----6--------x-----0--|
|--5--------x-----------------x--3-----|--5--------x-----------------x--3-----|



|--------------------------0-----------|--4-----------------0-----------------|
|-----------------------0--------------|--------------------------0-----------|
|--------0--------0--------------------|-----------------------0--------------|
|-----0--------------------------------|--------0--------0--------------------|
|-----------x--4-----6--------x-----0--|-----0-----x--4-----6--------x-----0--|
|--5--------x-----------------x--3-----|--5--------x-----------------x--3-----|



|--------------------4h5--7--------0--|--------------------------------------|
|-------------------------0-----5-----|--------------------------0-----------|
|--------0--------0----0--------------|-----------------------0--------------|
|-----0-------------------------------|--------0--------0--------------------|
|-----------x--4-----6-------x--------|-----0-----x--7-----9--------x-----0--|
|--5--------x----------------x--7-----|--8--------x-----------------x--7-----|



|--------------------------------------|--4-----------------0-----------------|
|--------------------------------------|--------------------------0-----------|
|--------------------------------------|-----------------------0--------------|
|--------0-----------------------------|--------0--------0--------------------|
|-----0-----x-----0-----0-----x-----0--|-----0-----x--4-----6--------x-----0--|
|--8--------x--7-----8-----7--x--3-----|--5--------x-----------------x--3-----|



|--------------------5--4--0-----------|--------------------------------------|
|--------------------------0-----------|--------------------------0-----------|
|--------0--------0-----0--------0-----|-----------------------0--------------|
|-----0-----------------------------4--|--------4--------0--------------------|
|-----------x--4-----6--------x--------|-----0-----x--4-----6--------x-----0--|
|--5--------x-----------------x--3-----|--5--------x-----------------x--3-----|



|-------------------------------0--|--4-----------------------------------|
|----------------------------0-----|--------------------------0-----------|
|--------0--------0-------0--------|-----------------------0--------------|
|-----0--------------4h5-----------|--------0--------0--------------------|
|-----------x--4-----3h4-----------|-----0-----x--4-----6--------x-----0--|
|--5--------x----------------------|--5--------x-----------------x--3-----|



|--------------------4h5--7--------0--|--------------------------------------|
|-------------------------0-----5-----|--------------------------0-----------|
|--------0--------0----0--------------|-----------------------0--------------|
|-----0-------------------------------|--------0--------0--------------------|
|-----------x--4-----6-------x--------|-----0-----x--7-----9--------x-----0--|
|--5--------x----------------x--7-----|--8--------x-----------------x--7-----|


Obs2.: Nessa parte (01:03) muda o ritmo.
                                         (01:03)

|--------------------------------------||---------------0--------------0--|
|--------------------------------------||------------3--------------3-----|
|--------------------------------------||-----------0---------------0-----|
|--------0-----------------------------||--------3---------------3--------|
|-----0-----x-----0-----0-----x-----0--||------0--------------0-----------|
|--8--------x--7-----8-----7--x--3-----||---1--------------1--------------|


Obs3.: Esse SH é um Semi Harmonic (semi harmônico - O semi harmônico é semelhante ao pinch harmônico, 
exceto que você mantenha a ressonância natural da corda, além do harmônico.
É quando se faz um harmônico com mais força e sai uma nota "meio” morta.)


|-----------------0--------------------|----------------------------0--|
|--3-----------3-----3--------0--------|-----------SH----0h2-----2-----|
|-----4-----4-----------4-----------0--|-----------12----0-------0-----|
|--------3-----------------3-----3-----|--------0--12----0h2--2--------|
|--------------------------------------|-----0-----12------------------|
|--3-----------------------------------|--5--------12------------------|


            SH

|-----------12----5p4-----0-----------|
|--------0--12---------5-----0-----3--|
|-----0-----12------------------0-----|
|--4--------12------------------------|
|-------------------------------------|
|-------------------------------------|



|----------------0--------------0--|
|-----------3----------------3-----|
|-----------0----------------0-----|
|--------3----------------3--------|
|-----0----------------0-----------|
|--1----------------1--------------|



|--------------0--4h5--7t--0h2--0--|
|--3--3--3--3----------------------|
|--2--2--2--2--0--4h5--7t--0h2--0--|
|--3--3--3--3----------------------|
|----------------------------------|
|--3--3--3--3----------------------|


Obs4.: Volta ao ritmo.

(01:15)

|--------------------------------------|--------------------------0-----------|
|--------------------------0-----------|-----------------------0--------------|
|-----------------------0--------------|--------0--------0--------------------|
|--------0--------0--------------------|-----0--------------------------------|
|-----0-----x--4-----6--------x-----0--|-----------x--4-----6--------x-----0--|
|--5--------x-----------------x--3-----|--5--------x-----------------x--3-----|

 

|--------------------------------------|--------------------------0-----------|
|--------------------------0-----------|-----------------------0--------------|
|-----------------------0--------------|--------0--------0--------------------|
|--------0--------0--------------------|-----0--------------------------------|
|-----0-----x--4-----6--------x-----0--|-----------x--4-----6--------x-----0--|
|--5--------x-----------------x--3-----|--5--------x-----------------x--3-----|


Obs5.: Ai temos um NH (Harmônico Natural).


|--4--------------0----------------12----|
|------------------------------12--------|
|--------------------NH----12------------|
|--------0-----------12------------12----|
|-----0-----x--4-------------------------|
|--5--------x-----0----------------------|



|--------------------5--4--0-----------|--------------------------------------|
|--------------------------0-----------|--------------------------0-----------|
|--------0--------0-----0--------0-----|-----------------------0--------------|
|-----0-----------------------------4--|--------4--------0--------------------|
|-----------x--4-----6--------x--------|-----0-----x--4-----6--------x-----0--|
|--5--------x-----------------x--3-----|--5--------x-----------------x--3-----|



|--------------------------0-----------|--4-----5-----7-----4-----5-----7-----|
|-----------------------0--------------|--------------------------0-----------|
|--------0--------0--------------------|-----------------------0--------------|
|-----0--------------------------------|--------0--------0--------------------|
|-----------x--4-----6--------x-----0--|-----0-----x--4-----6--------x-----0--|
|--5--------x-----------------x--3-----|--5--------x-----------------x--3-----|



|--4-----5-----0-----------0-----------|--------------------------------------|
|--------------------4-----------0-----|--------------------------0-----------|
|--------0--------0-----0-----------0--|-----------------------0--------------|
|-----0--------------------------------|--------0--------0--------------------|
|-----------x--4-----6--------x--------|-----0-----x--7-----9--------x-----0--|
|--5--------x-----------------x--7-----|--8--------x-----------------x--7-----|



|---------------------------------------|
|---------------------------------------|
|---------------------------------------|
|--------0------------------------------|
|-----0-----x-----0-----0-----x-----0---|
|--8--------x--7-----8-----7--x--3------|


Obs6.: Muda o ritmo outra vez (01:36).

(01:36)

|---------------0--------------0--|
|------------3--------------3-----|
|-----------0---------------0-----|
|--------3---------------3--------|
|------0--------------0-----------|
|---1--------------1--------------|



|-----------------0--------------------|----------------------------0--|
|--3-----------3-----3--------0--------|-----------SH----0h2-----2-----|
|-----4-----4-----------4-----------0--|-----------12----0-------0-----|
|--------3-----------------3-----3-----|--------0--12----0h2--2--------|
|--------------------------------------|-----0-----12------------------|
|--3-----------------------------------|--5--------12------------------|


            SH

|-----------12----5p4-----0-----------|
|--------0--12---------5-----0-----3--|
|-----0-----12------------------0-----|
|--4--------12------------------------|
|-------------------------------------|
|-------------------------------------|



|----------------0--------------0--|
|-----------3----------------3-----|
|-----------0----------------0-----|
|--------3----------------3--------|
|-----0----------------0-----------|
|--1----------------1--------------|



|--------------0--4h5--7t--0h2--0--|
|--3--3--3--3----------------------|
|--2--2--2--2--0--4h5--7t--0h2--0--|
|--3--3--3--3----------------------|
|----------------------------------|
|--3--3--3--3----------------------|


Obs7.: Nova parte, muda o ritmo outra vez (01:48) e ainda entra umas
notas abafadas (PM - Palm Muted).


    PM PM PM       PM   PM                 

||----------------------------------|
||----------------------------------|
||------------0h2------------0h2p0--|
||---------4------------0h4---------|
||------2----------0h2--------------|
||---0------------------------------|


  PM PM PM        PM   PM                 

|----------------------------------|
|----------------------------------|
|-----------0h2-------------0h2p0--|
|--------4-------------0h4---------|
|-----2-----------0h2--------------|
|--0-------------------------------|


  PM   PM       PM  PM PM             

|---------------------------------|
|---------------------------------|
|----------0h4-------------0h2p0--|
|--------------------0------------|
|-------3-------0h1-----3---------|
|--0h1----------------------------|


  PM     PM     PM  PM PM             

|---------------------------------|
|---------------------------------|
|----------0h4-------0-----0h2p0--|
|---------------0h1-----3---------|
|-------3-------------------------|
|--0h1----------------------------|



|-------------0----------------------|
|---------------------0--------------|
|--------0h4-----4p0--------0--------|
|--------0h5-----5p0--------------0--|
|--0---------------------6-----6-----|
|-----5------------0-----------------|


                        SH                                   SH

|-----------------------12-------|2|-------------------------12----|
|--------------------5--12----5--|v|--------------------9----12----|
|-----------------0--4--12----4--|e|-----------------0--7----12----|
|--------------0--------12-------|z|--------------0----------12----|
|--0-----0-----------------------|e|--0-----0----------------------|
|-----7-----8--------------------|s|-----7-----8-------------------|



   PM   PM  PM PM                    

|------------------4-----4-----4-----|
|------------------0-----0-----0-----|
|------------------6-----6-----6-----|
|------------5-----5-----------------|
|-------4h6-----6--x--6-----x-----6--|
|--3h5-------------x--------x--------|


   PM   PM  PM PM                    

|------------------5-----5-----5-----|
|------------------7-----7-----7-----|
|------------------0-----0-----0-----|
|------------5-----7-----------------|
|-------4h6-----6--x--7-----x-----7--|
|--3h5-------------x--------x--------|


   PM   PM  PM PM                    

|------------------4-----4-----4-----|
|------------------0-----0-----0-----|
|------------------6-----6-----6-----|
|------------5-----5-----------------|
|-------4h6-----6--x--6-----x-----6--|
|--3h5-------------x--------x--------|


   PM   PM  PM PM                    

|------------------7-----7-----7-----|
|------------------5-----5-----5-----|
|------------------0-----0-----0-----|
|------------5-----7-----------------|
|-------4h6-----6--x--7-----x-----7--|
|--3h5-------------x--------x--------|


   PM   PM  PM PM                    

|------------------2-----2-----2-----|
|------------------0-----0-----0-----|
|------------------4-----4-----4-----|
|------------3-----3-----------------|
|-------2h4-----4--x--4-----x-----4--|
|--1h3-------------x--------x--------|


   PM   PM  PM PM                    

|------------------3-----3-----3-----|
|------------------5-----5-----5-----|
|------------------0-----0-----0-----|
|------------3-----5-----------------|
|-------2h4-----4--x--5-----x-----5--|
|--1h3-------------x--------x--------|


   PM   PM  PM PM                    

|------------------2-----2-----2-----|
|------------------0-----0-----0-----|
|------------------4-----4-----4-----|
|------------3-----3-----------------|
|-------2h4-----4--x--4-----x-----4--|
|--1h3-------------x--------x--------|



|----------------------------0-----|--2h4--0-----------0--------------|
|-------------------------------0--|----------0-----------------------|
|-----------------------4h5--------|-------------0--------------------|
|------------3-----3h5-------------|----------------4--------0---0----|
|-------2h4-----4------------------|----------------------x--0---0----|
|--1h3-----------------------------|----0-----------------x--1---1----|


                                    PM   PM  PM PM                    

|-----------------0--------------|------------------4-----4-----4-----|
|--0-----------------------------|------------------0-----0-----0-----|
|-----0--------0--------0---0----|------------------6-----6-----6-----|
|--------0--------------0---0----|------------5-----5-----------------|
|-----------6--------x--0---0----|-------4h6-----6--x--6-----x-----6--|
|--7-----------------x--8---8----|--3h5-------------x--------x--------|


   PM   PM  PM PM                    

|------------------5-----5-----5-----|
|------------------7-----7-----7-----|
|------------------0-----0-----0-----|
|------------5-----7-----------------|
|-------4h6-----6--x--7-----x-----7--|
|--3h5-------------x--------x--------|


   PM   PM  PM PM                    

|------------------4-----4-----4-----|
|------------------0-----0-----0-----|
|------------------6-----6-----6-----|
|------------5-----5-----------------|
|-------4h6-----6--x--6-----x-----6--|
|--3h5-------------x--------x--------|


   PM   PM  PM PM                    

|------------------7-----7-----7-----|
|------------------5-----5-----5-----|
|------------------0-----0-----0-----|
|------------5-----7-----------------|
|-------4h6-----6--x--7-----x-----7--|
|--3h5-------------x--------x--------|


   PM   PM  PM PM                    

|------------------2-----2-----2-----|
|------------------0-----0-----0-----|
|------------------4-----4-----4-----|
|------------3-----3-----------------|
|-------2h4-----4--x--4-----x-----4--|
|--1h3-------------x--------x--------|


   PM   PM  PM PM                    

|------------------3-----3-----3-----|
|------------------5-----5-----5-----|
|------------------0-----0-----0-----|
|------------3-----5-----------------|
|-------2h4-----4--x--5-----x-----5--|
|--1h3-------------x--------x--------|


   PM   PM  PM PM                    

|------------------2-----2-----2-----|
|------------------0-----0-----0-----|
|------------------4-----4-----4-----|
|------------3-----3-----------------|
|-------2h4-----4--x--4-----x-----4--|
|--1h3-------------x--------x--------|



|----------------------------0-----|
|-------------------------------0--|
|-----------------------4h5--------|
|------------3-----3h5-------------|
|-------2h4-----4------------------|
|--1h3-----------------------------|


  PM PM PM       PM   PM                 

|---------------------------------|
|---------------------------------|
|-----------0h2------------0h2p0--|
|--------4------------0h4---------|
|-----2----------0h2--------------|
|--0------------------------------|


  PM PM PM       PM   PM                  

|---------------------------------|
|---------------------------------|
|-----------0h2------------0h2p0--|
|--------4------------0h4---------|
|-----2----------0h2--------------|
|--0------------------------------|


   PM   PM  PM PM                    

|------------------2-----2-----2-----|
|------------------0-----0-----0-----|
|------------------4-----4-----4-----|
|------------3-----3-----------------|
|-------2h4-----4--x--4-----x-----4--|
|--1h3-------------x--------x--------|


   PM   PM  PM PM                    

|------------------3-----3-----3-----|
|------------------5-----5-----5-----|
|------------------0-----0-----0-----|
|------------3-----5-----------------|
|-------2h4-----4--x--5-----x-----5--|
|--1h3-------------x--------x--------|


  PM PM PM       PM   PM                 

|---------------------------------|
|---------------------------------|
|-----------0h2------------0h2p0--|
|--------4------------0h4---------|
|-----2----------0h2--------------|
|--0------------------------------|


  PM PM PM       PM   PM                 

|---------------------------------|
|---------------------------------|
|-----------0h2------------0h2p0--|
|--------4------------0h4---------|
|-----2----------0h2--------------|
|--0------------------------------|


   PM   PM  PM PM                    

|------------------2-----2-----2-----|
|------------------0-----0-----0-----|
|------------------4-----4-----4-----|
|------------3-----3-----------------|
|-------2h4-----4--x--4-----x-----4--|
|--1h3-------------x--------x--------|


   PM   PM  PM PM                    

|------------------3-----3-----3-----|
|------------------5-----5-----5-----|
|------------------0-----0-----0-----|
|------------3-----5-----------------|
|-------2h4-----4--x--5-----x-----5--|
|--1h3-------------x--------x--------|


   PM   PM  PM PM                    

|------------------2-----2-----2-----|
|------------------0-----0-----0-----|
|------------------4-----4-----4-----|
|------------3-----3-----------------|
|-------2h4-----4--x--4-----x-----4--|
|--1h3-------------x--------x--------|



|----------------------------0-----|--2h4--0-----------0--------------|
|-------------------------------0--|----------0-----------------------|
|-----------------------4h5--------|-------------0--------------------|
|------------3-----3h5-------------|----------------4--------0---0----|
|-------2h4-----4------------------|----------------------x--0---0----|
|--1h3-----------------------------|----0-----------------x--1---1----|



|-----------------0---------|--------------------------0-----------|
|--0------------------------|--------------0-----------------------|
|-----0--------0--------0---|--------0--------0--------------------|
|--------0--------------0---|-----0-----------------0-----------0--|
|-----------6--------x--0---|-----------4--------6-----------0-----|
|--7-----------------x--8---|--5--------------------------3--------|



|--------------------------0-----------|--------------------------0-----------|
|--------------0-----------------------|--------------0-----------------------|
|--------0--------0--------------------|--------0--------0--------------------|
|-----0-----------------0-----------0--|-----0-----------------0-----------0--|
|-----------4--------6-----------0-----|-----------4--------6-----------0-----|
|--5--------------------------3--------|--5--------------------------3--------|

                                                  

|-----------------------------|
|--------------0--------------|
|--------0--------0-----------|
|-----0-----------------------|
|-----------4--------6--------|
|--5--------------------------|



|--4-----------------------------------|--------------------5--4--0-----------|
|--------------------------0-----------|--------------------------0-----------|
|--------0--------------0--------------|--------0--------0-----0--------0-----|
|-----0-----------0--------------------|-----0-----------------------------4--|
|-----------x--4-----6--------x-----0--|-----------x--4-----6--------x--------|
|--5--------x-----------------x--3-----|--5--------x-----------------x--3-----|



|--------------------------------------|--------------------------0-----------|
|--------------------------0-----------|-----------------------0--------------|
|-----------------------0--------------|--------0--------0--------------------|
|--------4--------0--------------------|-----0--------------------------------|
|-----0-----x--4-----6--------x-----0--|-----------x--4-----6--------x-----0--|
|--5--------x-----------------x--3-----|--5--------x-----------------x--3-----|



|--4-----------------0-----------------|--------------------4h5--7--------0--|
|--------------------------0-----------|-------------------------0-----5-----|
|--------0--------------0--------------|--------0--------0----0--------------|
|-----0-----------0--------------------|-----0-------------------------------|
|-----------x--4-----6--------x-----0--|-----------x--4-----6-------x--------|
|--5--------x-----------------x--3-----|--5--------x----------------x--7-----|



|--------------------------------------|---------------------------------------|
|--------------------------0-----------|---------------------------------------|
|-----------------------0--------------|---------------------------------------|
|--------0--------0--------------------|--------0------------------------------|
|-----0-----x--7-----9--------x-----0--|-----0-----x-----0-----0-----x-----0---|
|--8--------x-----------------x--7-----|--8--------x--7-----8-----7--x--3------|


Obs8.: Parte final.

   PM   PM  PM PM                    

|------------------5-----5-----5-----|
|------------------7-----7-----7-----|
|------------------0-----0-----0-----|
|------------5-----7-----------------|
|-------4h6-----6--x--7-----x-----7--|
|--3h5-------------x--------x--------|


   PM   PM  PM PM                    

|------------------4-----4-----4-----|
|------------------0-----0-----0-----|
|------------------6-----6-----6-----|
|------------5-----5-----------------|
|-------4h6-----6--x--6-----x-----6--|
|--3h5-------------x--------x--------|


   PM   PM  PM PM                    

|------------------7-----7-----7-----|
|------------------5-----5-----5-----|
|------------------0-----0-----0-----|
|------------5-----7-----------------|
|-------4h6-----6--x--7-----x-----7--|
|--3h5-------------x--------x--------|


   PM   PM  PM PM                    

|------------------2-----2-----2-----|
|------------------0-----0-----0-----|
|------------------4-----4-----4-----|
|------------3-----3-----------------|
|-------2h4-----4--x--4-----x-----4--|
|--1h3-------------x--------x--------|


   PM   PM  PM PM                    

|------------------3-----3-----3-----|
|------------------5-----5-----5-----|
|------------------0-----0-----0-----|
|------------3-----5-----------------|
|-------2h4-----4--x--5-----x-----5--|
|--1h3-------------x--------x--------|


   PM   PM  PM PM                    

|------------------2-----2-----2-----|
|------------------0-----0-----0-----|
|------------------4-----4-----4-----|
|------------3-----3-----------------|
|-------2h4-----4--x--4-----x-----4--|
|--1h3-------------x--------x--------|


   PM   PM  PM PM                    

|------------------5-----5-----5-----|
|------------------3-----3-----3-----|
|------------------0-----0-----0-----|
|------------3-----5-----------------|
|-------2h4-----4--x--5-----x-----5--|
|--1h3-------------x--------x--------|


   PM   PM  PM PM                    

|------------------4-----4-----4-----|
|------------------0-----0-----0-----|
|------------------6-----6-----6-----|
|------------5-----5-----------------|
|-------4h6-----6--x--6-----x-----6--|
|--3h5-------------x--------x--------|


   PM   PM  PM PM                    

|------------------5-----5-----5-----|
|------------------7-----7-----7-----|
|------------------0-----0-----0-----|
|------------5-----7-----------------|
|-------4h6-----6--x--7-----x-----7--|
|--3h5-------------x--------x--------|


   PM   PM  PM PM                       PM   PM  PM PM            
|------------------4-----4-----4-----|----------------------------|
|------------------0-----0-----0-----|----------------------------|
|------------------6-----6-----6-----|----------------------------|
|------------5-----5-----------------|------------5---------------|
|-------4h6-----6--x--6-----x-----6--|-------4h6-----6------------|
|--3h5-------------x--------x--------|--3h5-------------5---------|

TOP cifras de Andy Mckee

  1. Rylynn Intro
  2. I'll Be Over You(cover Toto)
  3. Hunter's Moon
  4. Art Of Motion
  5. Ebon Coast
  6. Layover
  7. For My Father
  8. Spirit of the West (part. Don Ross)
  9. Ebon Coast Intro
  10. Africa

Pela Web