Cifras Web
Andy Mckee

Nakagawa-san

Andy Mckee

12 acessos


||--NH--------------0----|--------------------|
||--12-----------------2-|---------0----------|
||-------NH--5-----------|-----4------------2-|
||--------7--------------|--0---------------3-|
||-----------------------|---------------4--4-|
||---------------4-------|------------4-----4-|



|---------|-----0---------0----|
|------0--|--0------5----------|
|---4-----|--4---------------5-|
|---3-----|--3-----------------|
|---0-----|--0---------5-------|
|---2-----|--2-----------------|



|------------------0--3-|-----7h8p7--------------|
|--NH-------------------|-------------------0----|
|--12---NH--5-----------|----------------4-----4-|
|--------7--------------|------------------------|
|-----------------------|--4---------------------|
|---------------4-------|-------------4----------|



|-------------------|-----0---------0-----|
|--------------0--2-|---------5-----------|
|--------4--------4-|-------------------5-|
|--5--3--3----------|---------------------|
|-------------------|------------5--------|
|-----------2-------|--2------------------|



|---------------|-------0-0----|
|---------------|-------0-0--2-|
|---------------|-------5----0-|
|-NH-----NH-----|-------0----3-|
|--7-----12-----|--------------|
|-------------0-|--0---------2-|



|-0-0------0-0-----0--|-----------------------|
|-2-2--7---7-7--2-----|-------------0------2--|
|-0-0--9---9----0-----|-------4------------0--|
|-3----8--------3-----|----------0---------3--|
|---------------------|--1/2------------------|
|------9--------2-----|-----------------x--2--|



|-0-0--------0-0-----0-|----------------------|
|-2-2--7-----7-7--2----|--------------------2-|
|-0-0--9-----9----0----|---------------4p0--0-|
|-3--------8------3----|------------3-------3-|
|----------------------|-------0--------------|
|------9----------2----|--4/6---------------0-|



|-3-------------------|-3----------------|
|-------0-----------2-|-------0----------|
|----0------2h4--0--0-|----0------2h4--0-|
|-------------------3-|------------------|
|---------------------|------------------|
|-------------------0-|------------------|



|-------7h8p7-------------|------------------------|
|-------7-----7-----9--7--|-------0----------------|
|----------------7--------|----4-----4-------------|
|----8--------------------|-------------5--3-------|
|-0-----------------------|-------------------5--4-|
|-------------------------|-4----------------------|



|----3----------------|----3----------------|
|-2--------0----------|-2--------0----------|
|-0-----0------2h4--0-|-0-----0------2h4--0-|
|-3-------------------|-3-------------------|
|---------------------|---------------------|
|-0-------------------|-0-------------------|



|-------7h8p7------------|------------------------|
|-------7-----7-----9--7-|-------0----------------|
|----------------7-------|----4-----4-------------|
|----8-------------------|-------------5--3-------|
|-0----------------------|-------------------5--4-|
|------------------------|-4----------------------|



|----------------0--0-0-|------------------|
|----------0--------0---|-2---2--4h5--4----|
|-------0-----------0---|-0---0----------5-|
|-----------------------|-3---3------------|
|----5-----------5------|------------------|
|-9-----------9---------|-2---2------------|



|----------7---7/8--3-|------------------------|
|---------------------|-------0----------------|
|-------5-------------|----4-----4-------------|
|----7----------------|-------------5--3--0--5-|
|---------------------|------------------------|
|-0-------------------|-4----------------------|



|----------3----------|-------------0---|
|----------0---3/2--0-|----------0----0-|
|-------5-------------|--------0--------|
|----5----------------|----2/3----------|
|---------------------|-----------------|
|-5-------------------|-0---------------|



|----------7---7/8---8-|------------8--------3-|
|----------------------|----------------8h9----|
|-------5--------------|--------10-------------|
|----7-----------------|----12-----------------|
|----------------------|-----------------------|
|-0--------------------|-9---------------------|



|-------------3----------|-------------3----------|
|----------0-----0-----0-|----------0-----0-----0-|
|-------2-----------2----|-------4-----------4----|
|----3-------------------|----3-------------------|
|------------------------|------------------------|
|-2----------------------|-2----------------------|



|----------7---7/8---3-|------------------------|
|----------------------|-------0----------------|
|-------5--------------|----4-----4-------------|
|----7-----------------|-------------5--3--0--5-|
|----------------------|------------------------|
|-0--------------------|-4----------------------|



|----------3----------|------------0------------|
|----------0---3/2--0-|----------0----0-------0-|
|-------5-------------|--------0----------0h2---|
|----5----------------|----2/3------------------|
|---------------------|-------------------------|
|-5-------------------|-0-----------------------|



|----------7---7/8---8-|------------8---10h12---10-|
|----------------------|---------------------------|
|-------5--------------|--------10-----------------|
|----7-----------------|----12---------------------|
|----------------------|---------------------------|
|-0--------------------|-9-------------------------|



|-------------10----------|------|--------------0----------|
|----------7------7-------|------|-----------------------0-|
|-------7------------7----|------|-----------0-------------|
|----8------------------8-|--8---|--------7-----------7----|
|-7-----------------------|--7---|-7--7h9----------9-------|
|-------------------------|------|-------------------------|




|----0--------------0----|-------------0----------|
|-------------0----------|-------0--------------0-|
|-0--------------0-------|----------0--------0----|
|----------7-------------|----7-----------7-------|
|-------9----------------|-9----------------------|
|----------------------0-|------------------------|



|----0--------------0----|-------------0-----------|
|-------------0----------|-------0---------------0-|
|-0--------------0-------|----------0--------------|
|----------7-------------|----7--------------12----|
|-------9----------------|-9-----------------------|
|----------------------0-|----------------0--------|



|-------0-------------|
|----------------0----|
|-0-----------------0-|
|-------------5-------|
|---------------------|
|----0-----0----------|


|-0-----------||
|---5---------||
|-----0-------||
|-------5-----||
|---------0---||
|-----------0-||

TOP cifras de Andy Mckee

  1. Rylynn Intro
  2. I'll Be Over You(cover Toto)
  3. Hunter's Moon
  4. Art Of Motion
  5. Ebon Coast
  6. Layover
  7. For My Father
  8. Spirit of the West (part. Don Ross)
  9. Ebon Coast Intro
  10. Africa

Pela Web