Cifras Web
Andy Mckee

Nocturne

Andy Mckee

14 acessos

Afinação: DA#FD#GC

(Afinar assim)

D5
Bb4
F4
Eb4
G3
C3

Obs.: Esse NH é o Natural Harmonic( Harmônico natural ). 
       NH

|------12-------3--2-1-0-----------------NH-|
|------12-------0---------0--------------12-|
|------12-------0---------------0-----NH----|
|------12-------0------------0--------12----|
|-------------------------------------------|
|--0--------0----------0-----------0--------|


       NH

|------12-------3--2-1-0----------------------|
|------12-------0---------0-----------0-------|
|------12-------0---------------0--7--------0-|
|------12-------0------------0-----------6----|
|---------------------------------------------|
|--0--------0----------0-----------5----------|


      NH

|------7--------3--2-1-0-------------------|
|------7--------0---------0--------------0-|
|------7--------0---------------0----------|
|------7--------0------------0---------0---|
|------------------------------------------|
|--0--------0----------0-----------0-------|


       NH

|------12-------3--2-1-0----------------------|
|------12-------0---------0-----------0-------|
|------12-------0---------------0--7--------0-|
|------12-------0------------0-----------6----|
|---------------------------------------------|
|--0--------0----------0-----------5----------|


Obs2.: Na parte com o "t" se faz o tapping.

       NH

|------12-------------------------|------NH-7-8p7-----------0t-|
|------12----------------------7t-|------7--------9p7---7h9----|
|------12-------------0t----------|------7---------------------|
|------12---NH-----------6-7h9----|------7------------7t-------|
|--3--------12-7-8h10-------------|-7--7-----------------------|
|--3--------12--------------------|----------------------------|


       NH

|------12-------------------------|------NH-7-8-7-------------0t-|
|------12----------------------7t-|------7--------9-7---7-9-7----|
|------12-------------0t----------|------7-----------------------|
|------12---NH----------6h-7h9----|------7------------7t---------|
|--3--------12-7-8h10-------------|-7--7-------------------------|
|--3--------12--------------------|------------------------------|


       NH

|------12-------------------------|--------------------------|
|------12----------------7-4---0t-|------------0-------------|
|------12-------------7t-----5----|---------7--------0-------|
|------12---NH--------------------|------7--------6----------|
|--3--------12-7-8h11-------------|---5--------------------5-|
|--3--------12--------------------|-5-------------------5----|




|-----------------------------|
|--------------0--------------|
|-----------7--------0--------|
|--------7--------6-----------|
|-----5----------------3--2-1-|
|--5-------------------3--2-1-|


       NH

|------12-------3--2-1-0-----------------NH-|
|------12-------0---------0--------------12-|
|------12-------0---------------0-----NH----|
|------12-------0------------0--------12----|
|-------------------------------------------|
|--0--------0----------0-----------0--------|


       NH

|------12-------3--2-1-0----------------------|
|------12-------0---------0-----------0-------|
|------12-------0---------------0--7--------0-|
|------12-------0------------0-----------6----|
|---------------------------------------------|
|--0--------0----------0-----------5----------|


      NH

|------7--------3--2-1-0-------------------|
|------7--------0---------0--------------0-|
|------7--------0---------------0----------|
|------7--------0------------0---------0---|
|------------------------------------------|
|--0--------0----------0-----------0-------|


       NH

|------12-------3--2-1-0----------------------|
|------12-------0---------0-----------0-------|
|------12-------0---------------0--7--------0-|
|------12-------0------------0-----------6----|
|---------------------------------------------|
|--0--------0----------0-----------5----------|



       NH

|------12-------------------------|------NH-7-8p7-----------0t-|
|------12----------------------7t-|------7--------9p7---7h9----|
|------12-------------0t----------|------7---------------------|
|------12---NH-----------6-7h9----|------7------------7t-------|
|--3--------12-7-8h10-------------|-7--7-----------------------|
|--3--------12--------------------|----------------------------|


       NH

|------12-------------------------|------NH-7-8-7-------------0t-|
|------12----------------------7t-|------7--------9-7---7-9-7----|
|------12-------------0t----------|------7-----------------------|
|------12---NH----------6h-7h9----|------7------------7t---------|
|--3--------12-7-8h10-------------|-7--7-------------------------|
|--3--------12--------------------|------------------------------|


       NH

|------12--------------------------|---------------------------|
|------12----------------7-4---0t--|-------------0-------------|
|------12-------------7t-----5-----|----------7--------0-------|
|------12---NH---------------------|-------7--------6----------|
|--3--------12-7-8h11--------------|----5--------------------5-|
|--3--------12---------------------|-5--------------------5----|



|----------------------------|
|--------------0-----------0-|
|-----------7--------0-------|
|--------7--------6-----6----|
|-----5-----------------5----|
|--5--------------------5----|



|---------0------------------|-------0----------------|
|-----------------------0----|-------------------0----|
|------0-------------0-------|----0-----------0-------|
|--11------------11----------|-4-----------4----------|
|--10------------10----------|-3-----------3----------|
|--10--------10--10--------0-|-3--------3--3--------3-|



|---------0------------------|-------0-----------------|
|-----------------------0----|--------------------0----|
|------0-------------0-------|----0------------0-------|
|--11------------11----------|-4------------9----------|
|--10------------10----------|-3-----------10----------|
|--10--------10--10--------0-|-3--------3---9--------9-|



|---------0------------------|-------0----------------|
|-----------------------0----|-------------------0----|
|------0-------------0-------|----0-----------0-------|
|--11------------11----------|-4-----------4----------|
|--10------------10----------|-3-----------3----------|
|--10--------10--10--------0-|-3--------3--3--------3-|



|---------0------------------|-------0-----------------|
|-----------------------0----|--------------------0----|
|------0-------------0-------|----0------------0-------|
|--11------------11----------|-4------------9----------|
|--10------------10----------|-3-----------10----------|
|--10--------10--10--------0-|-3--------3---9--------9-|



|-----------0--------------|---------------------------|
|-----------------------0--|------------0--------------|
|--------------------------|---------7--------0--------|
|--------9-----------9-----|------7--------6-----------|
|-----7-----------7--------|---5----------------3--2-1-|
|--7-----------7-----------|-5------------------3--2-1-|


       NH

|------12-------3--2-1-0-----------------NH-|
|------12-------0---------0--------------12-|
|------12-------0---------------0-----NH----|
|------12-------0------------0--------12----|
|-------------------------------------------|
|--0--------0----------0-----------0--------|


       NH

|------12-------3--2-1-0----------------------|
|------12-------0---------0-----------0-------|
|------12-------0---------------0--7--------0-|
|------12-------0------------0-----------6----|
|---------------------------------------------|
|--0--------0----------0-----------5----------|

                                                         

|-------------NH-------3--2-1-|-0------------------NH-|
|-------------7--------0------|----0---------------12-|
|---------NH--7~-------0------|----------0------NH----|
|-----NH--12-----------0------|-------0---------12----|
|-----12----------------------|-----------------------|
|--0---------------0----------|-0-----------0---------|


       NH

|------12-------3--2-1-0----------------------|
|------12-------0---------0-----------0-------|
|------12-------0---------------0--7--------0-|
|------12-------0------------0-----------6----|
|---------------------------------------------|
|--0--------0----------0-----------5----------|


       NH

|------12------------------------|------NH-7-8-7-----------0-|
|------12----------------------7-|------7--------9-7---7-9---|
|------12-------------0----------|------7--------------------|
|------12---NH-----------6-7-9---|------7------------7-------|
|--3--------12-7-8-10------------|-7--7----------------------|
|--3--------12-------------------|---------------------------|


       NH
|------12------------------------|------NH-7-8-7--------------|
|------12----------------------7-|------7--------9-7--------0-|
|------12-------------0----------|------7--------------7-9-7--|
|------12---NH-----------6-7-9---|------7------------7--------|
|--3--------12-7-8-10------------|-7--7-----------------------|
|--3--------12-------------------|----------------------------|       

       NH

|------12-------------------------|--------------------------|
|------12----------------7-4---0--|------------0-------------|
|------12-------------7------5----|---------7--------0-------|
|------12---NH--------------------|------7--------6----------|
|--3--------12-7-8-11-------------|---5--------------------5-|
|--3--------12--------------------|-5-------------------5----|



|----------------------------|
|--------------0-----------0-|
|--0--------7--------0-------|
|--------7--------6-----6----|
|-----5-----------------5----|
|--5--------------------5----|



|---------0------------------|-------0----------------|
|-----------------------0----|-------------------0----|
|------0-------------0-------|----0-----------0-------|
|--11------------11----------|-4-----------4----------|
|--10------------10----------|-3-----------3----------|
|--10--------10--10--------0-|-3--------3--3--------3-|



|---------0------------------|-------0-----------------|
|-----------------------0----|--------------------0----|
|------0-------------0-------|----0------------0-------|
|--11------------11----------|-4------------9----------|
|--10------------10----------|-3-----------10----------|
|--10--------10--10--------0-|-3--------3---9--------9-|



|---------0------------------|-------0----------------|
|-----------------------0----|-------------------0----|
|------0-------------0-------|----0-----------0-------|
|--11------------11----------|-4-----------4----------|
|--10------------10----------|-3-----------3----------|
|--10--------10--10--------0-|-3--------3--3--------3-|



|---------0------------------|-------0-----------------|
|-----------------------0----|--------------------0----|
|------0-------------0-------|----0------------0-------|
|--11------------11----------|-4------------9----------|
|--10------------10----------|-3-----------10----------|
|--10--------10--10--------0-|-3--------3---9--------9-|

        
|-------------0-----|
|-------------------|
|------0------------|
|---------11--------|
|-------------------|
|--10------------10-|

TOP cifras de Andy Mckee

  1. Rylynn Intro
  2. I'll Be Over You(cover Toto)
  3. Hunter's Moon
  4. Art Of Motion
  5. Ebon Coast
  6. Layover
  7. For My Father
  8. Spirit of the West (part. Don Ross)
  9. Ebon Coast Intro
  10. Africa

Pela Web