Cifras Web
Andy Mckee

Rylynn

Andy Mckee

12 acessos

Afinação: DAGDCE

Intro:

D|--0-7-9--10---9/10-9-------10---9------12-------10--9h10p9--0--|
A|---------0-----------7-----0------10------------0-----------7~-|
G|---------0-----------0-----0---------------5----0-----------0--|
D|---------------------0--------------------------------------0--|
C|---------------------0--------------------------------------0--|
E|---------0-----------------0--------------------0-----------0--|



D|-------0---------------------0-------------------0--------------|
A|-----5---5-------2----------------------------------------------|
G|---0-------0---0-----0--7-9-----14--12---0--7-9------------0----|
D|-0-----------0-------0--0-7-----12--14---0--0-7----------0------|
C|---------------------0--0-0------0---0---0--0-0--------9--------|
E|---------------------0--7-8-----13--13---0--7-8-----13-------13-|



D|---------0--------------7/9-10-9----9-10-12/14--14-10-0-|
A|---------------------8-----------10-------------12--8-2-|
G|-0--7-9-----14--12---0------------0--------------0--0-0-|
D|-0--0-7-----12--14--10--------------------------------0-|
C|-0--0-0------0---0---0---------------------------0------|
E|-0--7-8-----13--13--10-----------12---------------------|


Obs2.: A parte que leva "X" em toda tablatura é a parte que ele usa a unha (dá uma batidinha).


D|---0-7-9--10---7/9---7-----------------------------------------7----|
A|------------------------7---------0-------10-------7----8-10-----10-|
G|-----------0-0------------------0-------0--------0------0--7--------|
D|-----------0-----------------10-------0--------0--------0--7--------|
C|-X-----------------X-------0--------X----------------X--------------|
E|-X---------0-------X----------------X--------8-------X-------7------|



D|---0--9--10-9-9---12-----------------------------0-------------0-|
A|-----10--10----------12-13b(14)--10-10-----7---------7-----2-----|
G|----------------------0--------------0---0-----0-------0-----0---|
D|----------0-----------0--------------0-------0-----------0-------|
C|-X--------0-----X--------------0-------X-----------X-------------|
E|-X--------------X----------------------X-----------X-------------|



D|---0-7h9--9-----10---10/12-10--------9h10---9-------------------------------|
A|----------0----------------10-------10----------10--------7---8-7-------7---|
G|-------------10-----------------------------------------0-----0-7-----------|
D|---------10----------------------10-----------0-------0-------0-7-----7-----|
C|-X--------9--------X----------------------X-----------------X-------7-----X-|
E|-X-----------------X----------13----------X---------8-------X-----7-------X-|



D|--------------------------------------------------------------------|
A|---------------7----------------7h8-8-7-----8-----10--------8-------|
G|-7-0-------0------2-------2h4---------------0------0--2-----0---2/4-|
D|---------0--------------0-----------------0---0-------0---0-------0-|
C|-------4-----X-------0--------X-----------------X-------------X-----|
E|-----0-------X----------------X---------8-------X-------7-----X-----|



D|-----------0-------------------0-0-----|
A|-----------------------7-------7-7-----|
G|-0--7---9------14--12--0---0---0-0---0-|
D|-0--0---7------12--14----0---0-9-9-0---|
C|-0--0-X-0----X--0---0--9-------X-------|
E|-0--7-X-8----X-13--13--0-------X-------|



D|-----------------------------0--------------------------0---------|
A|---------8---10---------------------------------------------------|
G|-------0---------9-------4------2--------2h4p0--------0-------0---|
D|----10-----------------0---------------0--------0h4-------------4-|
C|-----------X---------0-----X--------0------X--------2-----X-2-----|
E|-10--------X-------7-------X---------------X--------------X-------|



D|-----------0-----------0-0------0--0-|
A|----------------------10-----0-10-10-|
G|-0--7---9------14--16--0---0----0--0-|
D|-0--0---7------12--14--5-------------|
C|-0--0-X-0----X--0---0--0--------X----|
E|-0--7-X-8----X-13--13--0--------X----|



D|-------7/9-10-9----9-10-12/14--14---5--5-5-5-|
A|--8-------------10-------------12---2--2-2-2-|
G|--0--------------0--------------0---0--0-0-0-|
D|-10---------------------------------0--0-0-0-|
C|--0-X---------------------------0-X--------X-|
E|-10-X-----------12----------------X--------X-|



D|---0-7-9--10---7/9---7-----------------------------------------7----|
A|------------------------7---------0-------10-------7----8-10-----10-|
G|-----------0-0------------------0-------0--------0------0--7--------|
D|-----------0-----------------10------0---------0--------0--7--------|
C|-X-----------------X-------0--------X----------------X--------------|
E|-X---------0-------X----------------X--------8-------X-------7------|



D|--------9-10p9---------------------------------0-------------0---0-7h9-|
A|-----10--------10---------10----10---7-8p7---------7-----2-------------|
G|-0h9--------------9/7-0----------0-----------0-------0-----0-----------|
D|------------------------9------0-----------0-----------0---------------|
C|---------------------X-------0-----X-------------X-------------X-------|
E|-----------0---------X-------------X-------------X-------------X-------|



D|---0-7h9--9-----10---10/12-10--------9h10---9-------------------------------|
A|----------0----------------10-------10----------10--------7---8-7-------7---|
G|-------------10-----------------------------------------0-----0-7-----------|
D|---------10----------------------10-----------0-------0-------0-7-----7-----|
C|-X--------9--------X----------------------X-----------------X-------7-----X-|
E|-X-----------------X----------13----------X---------8-------X-----7-------X-|



D|--------------------------------------------------------------------|
A|---------------7----------------7h8-8-7-----8-----10--------8-------|
G|-7-0-------0------2-------2h4---------------0------0--2-----0---2/4-|
D|---------0--------------0-----------------0---0-------0---0-------0-|
C|-------4-----X-------0--------X-----------------X-------------X-----|
E|-----0-------X----------------X---------8-------X-------7-----X-----|



D|-----------0-------------------0-0-----|
A|-----------------------7-------7-7-----|
G|-0--7---9------14--12--0---0---0-0---0-|
D|-0--0---7------12--14----0---0-9-9-0---|
C|-0--0-X-0----X--0---0--9-------X-------|
E|-0--7-X-8----X-13--13--0-------X-------|



D|-----------------------------0--------------------------0---------|
A|---------8---10---------------------------------------------------|
G|-------0---------9-------4------2--------2h4p0--------0-------0---|
D|----10-----------------0---------------0--------0h4-------------4-|
C|-----------X---------0-----X--------0------X--------2-----X-2-----|
E|-10--------X-------7-------X---------------X--------------X-------|



D|------------------0-----------0-0------0--0-|
A|-----------------------------10-----0-10-10-|
G|---0----0--7---9------14--16--0---0----0--0-|
D|-----9--0--0---7------12--14--5-------------|
C|-7------0--0-X-0----X--0---0--0--------X----|
E|--------0--7-X-8----X-13--13--0--------X----|



D|-------7/9-10-9----9-10-12/14--14-10---12--12-12-12-12-12-12-12-|
A|--8-------------10-------------12--8---10--10-10-10-10-10-10-10-|
G|--0--------------0--------------0--0----0---0--0--0--0--0--0--0-|
D|-10-------------------------------------0---0--0--0--0--0--0--0-|
C|--0-X---------------------------0----X---------------X----------|
E|-10-X-----------12-------------------X---------------X----------|


Obs3.: (02:14) muda o dedilhado e na parte com o "t" se faz o tapping.

 (02:14)    NH                                  NH

D|----------12t-------3p2-0-------9---|---------12t------------------9----|
A|----------12t---0---------0-----7---|---------12t------------10/12---10-|
G|----------12t---0---------------0---|---------12t----------9------------|
D|----------------0-----------0-------|---------------9---10--------------|
C|--------------X---------------X-0---|-------------X-------------------X-|
E|-0h8-10t------X----0----------X-----|-0h8-10t-----X---0---------------X-|


                 NH                                  NH

D|---------------12t-------3p2-0-------9---|---------12t-------10p7----10/12---|
A|---------------12t---0---------0-----7---|---------12t---0----8---8----------|
G|-9-------------12t---0---------------0---|---------12t---0----7--------------|
D|---10----------------0-----------0-------|---------------0-------------------|
C|-------------------X---------------X-0---|-------------X-------------------X-|
E|------0h8-10t------X----0----------X-----|-0h8-10t-----X---0---------------X-|



D|------10---------10---10---14p10------------|-----------------0---0----7/9-----------|
A|-10---------------0----0---------14p10------|------12-------0-0---0--------10--------|
G|----0----------0-----------------------10p9-|----0----------------------------9------|
D|--------------------------------------------|-10--------------------------------10-9-|
C|--------------------X----0----------------X-|-------------------X----5-------------X-|
E|---------12h13------X---------------------X-|---------12h13-----X------------------X-|



D|----7--------7---7----7------------|--------------------------------|
A|-------------0---0------8-----10---|--------------------------------|
G|-----------0--------------7/9------|--0--------0---0---10-9-7-0-9---|
D|-10--------------------------------|-10--------0---0----------------|
C|---------------X-----------------X-|-------------X----------------X-|
E|------8h10-----X----0------------X-|----0h8-10---X---0------------X-|



D|------------------------------------|-0-------------------10p7---10/12---|
A|--------------------------------0---|----------------------8---8---------|
G|------------0---0-----------7/9-----|---0h7---------7---7--7-------------|
D|-7----------7---7-------0h7---------|---------------0---0----------------|
C|--------------X-----0h7-----------X-|-----------------X----------------X-|
E|---0-0h8-10---X---0---------------X-|-------8-10-10---X----------------X-|



D|------10---------10---10---------10-12/14---|----------------------0----0---------------|
A|-10---------------0----0---10-12------------|-14b(15)~~12---------12---12---10--8p7-----|
G|----0----------0----------------------------|-------------------0-------------------0---|
D|--------------------------------------------|-------------------------------------------|
C|--------------------X----0----------------X-|------------------------X----0-----------X-|
E|---------12h13------X---------------------X-|-------------12-13------X----------------X-|



D|-----7--------7---7----7------------|--------------------------------|
A|-7-8----------0---0------8-----10---|--------------------------------|
G|------------0--------------7/9------|--0--------0---0---10-9-7-0-9---|
D|------------------------------------|-10--------0---0----------------|
C|----------------X-----------------X-|-------------X----------------X-|
E|-------8h10-----X----0------------X-|----0h8-10---X---0------------X-|



D|--------------------------------|-0-------------------10p7---10/12---|
A|--------------------------------|----------------------8---8---------|
G|------------0---0-----------0---|---0h7---------7---7--7-------------|
D|-7----------7---7-------0h7-----|---------------0---0----------------|
C|--------------X-----0h7-------X-|-----------------X----------------X-|
E|---0-0h8-10---X---0-----------X-|-------8-10-10---X----------------X-|



D|------10---------10---10---------10-12/14---|----------------------0----0---------------|
A|-10---------------0----0---10-12------------|-14b(15)~~12---------12---12---10--8p7-----|
G|----0----------0----------------------------|-------------------0-------------------0---|
D|--------------------------------------------|-------------------------------------------|
C|--------------------X----0----------------X-|------------------------X----0-----------X-|
E|---------12h13------X---------------------X-|-------------12-13------X----------------X-|


                 NH                                  NH

D|-----7---------12t-------3p2-0-------9---|---------12t------------------9----|
A|-7-8-----------12t---0---------0-----7---|---------12t------------10/12---10-|
G|---------------12t---0---------------0---|---------12t----------9------------|
D|---------------------0-----------0-------|---------------9---10--------------|
C|-------------------X---------------X-0---|-------------X-------------------X-|
E|-------0h8-10t-----X----0----------X-----|-0h8-10t-----X---0---------------X-|


                 NH                                  NH

D|---------------12t-------3p2-0-------9---|---------12t-------10p7----10/12---|
A|---------------12t---0---------0-----7---|---------12t---0----8---8----------|
G|-9-------------12t---0---------------0---|---------12t---0----7--------------|
D|---10----------------0-----------0-------|---------------0-------------------|
C|-------------------X---------------X-0---|-------------X-------------------X-|
E|------0h8-10t------X----0----------X-----|-0h8-10t-----X---0---------------X-|


                                                                NH

D|------10---------10---10---14p10------------|-----------------12---0----------|
A|-10---------------0----0---------14p10------|------12-------0-12---0----------|
G|----0----------0-----------------------10p9-|----0----------------------17----|
D|--------------------------------------------|-10------------------------17----|
C|--------------------X----0----------------X-|--------------------X----------X-|
E|---------12h13------X---------------------X-|---------12h13------X---12-----X-|


Obs4.: (03:18) muda o dedilhado, volta ao dedilhado do começo.


D|---0-7-9--10---7/9---7-----------------------------------------7----|
A|------------------------7---------0-------10-------7----8-10-----10-|
G|-----------0-0------------------0-------0--------0------0--7--------|
D|-----------0-----------------10-------0--------0--------0--7--------|
C|-X-----------------X-------0--------X----------------X--------------|
E|-X---------0-------X----------------X--------8-------X-------7------|



D|---0--9--10-9-9---12-----------------------------0-------------0-|
A|-----10--10----------12-13b(14)--10-10-----7---------7-----2-----|
G|----------------------0--------------0---0-----0-------0-----0---|
D|----------0-----------0--------------0-------0-----------0-------|
C|-X--------0-----X--------------0-------X-----------X-------------|
E|-X--------------X----------------------X-----------X-------------|



D|---0-7h9--9-----10---10/12-10--------9h10---9-------------------------------|
A|----------0----------------10-------10----------10--------7---8-7-------7---|
G|-------------10-----------------------------------------0-----0-7-----------|
D|---------10----------------------10-----------0-------0-------0-7-----7-----|
C|-X--------9--------X----------------------X-----------------X-------7-----X-|
E|-X-----------------X----------13----------X---------8-------X-----7-------X-|



D|--------------------------------------------------------------------|
A|---------------7----------------7h8-8-7-----8-----10--------8-------|
G|-7-0-------0------2-------2h4---------------0------0--2-----0---2/4-|
D|---------0--------------0-----------------0---0-------0---0-------0-|
C|-------4-----X-------0--------X-----------------X-------------X-----|
E|-----0-------X----------------X---------8-------X-------7-----X-----|



D|---------------0--------------------0-0-----|
A|----------------------------7-------7-7-----|
G|-7/9-0---7---9-----14--12---0---0---0-0---0-|
D|-0---0---0---7-----12--14-----0---0-9-9-0---|
C|-----0---0-X-0---X--0---0-X-9-------X-------|
E|-----0---7-X-8---X-13--13-X-0-------X-------|



D|------------------------------0--------------------------0---------|
A|---------8---10----------------------------------------------------|
G|-------0---------9--------9------7--------7h9p0--------0-------0---|
D|----10------------------0---------------0--------0h9-------------9-|
C|-----------X----------0-----X--------0------X--------7-----X-7-----|
E|-10--------X-------12-------X---------------X--------------X-------|



D|------------------0-----------0-0------0--0-|
A|-----------------------------10-----0-10-10-|
G|---0----0--7---9------14--16--0---0----0--0-|
D|-----9--0--0---7------12--14--5-------------|
C|-7------0--0-X-0----X--0---0--0--------X----|
E|--------0--7-X-8----X-13--13--0--------X----|



D|-------7/9-10-9----9-10-12/14--14-10---12-|
A|--8-------------10-------------12--8---10-|
G|--0--------------0--------------0--0----0-|
D|-10-------------------------------------0-|
C|--0-X---------------------------0----X----|
E|-10-X-----------12-------------------X----|


Obs5.: (04:02) agora é só harmônico e tapping.


D|----9t----------------9t-------------|
A|-------10t---------------10t---------|
G|----------------NH----------------NH-|
D|-----------NH-X-12-----------NH-X-12-|
C|-NH--------12------NH--------12------|
E|-12----------------12----------------|



D|----9t----------------9t-------------|
A|-------10t---------------10t---------|
G|----------------NH----------------NH-|
D|-----------NH-X-12-----------NH-X-12-|
C|-NH--------12------NH--------12------|
E|-12----------------12----------------|



D|----7t---------------7t------------|
A|-------8t------NH-------8t------NH-|
G|----------NH---12----------NH---12-|
D|-NH-------12-X----NH-------12-X----|
C|-12---------------12---------------|
E|-----------------------------------|



D|----7t---------------7t------------|
A|-------8t------NH-------8t------NH-|
G|----------NH---12----------NH---12-|
D|-NH-------12-X----NH-------12-X----|
C|-12---------------12---------------|
E|-----------------------------------|



D|----9t----------------9t-------------|
A|-------10t---------------10t---------|
G|----------------NH----------------NH-|
D|-----------NH-X-12-----------NH-X-12-|
C|-NH--------12------NH--------12------|
E|-12----------------12----------------|



D|----9t----------------9t-------------|
A|-------10t---------------10t---------|
G|----------------NH----------------NH-|
D|-----------NH-X-12-----------NH-X-12-|
C|-NH--------12------NH--------12------|
E|-12----------------12----------------|



D|----7t---------------7t------------|
A|-------8t------NH-------8t------NH-|
G|----------NH---12----------NH---12-|
D|-NH-------12-X----NH-------12-X----|
C|-12---------------12---------------|
E|-----------------------------------|



D|----7t---------------7t------------|
A|-------8t------NH-------8t------NH-|
G|----------NH---12----------NH---12-|
D|-NH-------12-X----NH-------12-X----|
C|-12---------------12---------------|
E|-----------------------------------|



D|--9t10--9t------------------------|
A|--------------10t12-10t-----------|
G|--------------NH---------------NH-|
D|--------NH--X-12t---------NH-X-12-|
C|-NH-----12t---------NH----12------|
E|-12t----------------12------------|



D|----------------9t7------------|
A|---------------------10t----8t-|
G|---------NH--------------NH----|
D|----NH-X-12------NH---X--12----|
C|-NH-12------NH---12------------|
E|-12---------12-----------------|



D|--------------------------|
A|--7t--8t---NH--7t------NH-|
G|------NH---12-----NH-X-12-|
D|-NH---12-X----NH--12------|
C|-12-----------12----------|
E|--------------------------|



D|---------------3t------0---------|
A|---------NH--------------NH--3t0-|
G|----NH---12--------NH----12------|
D|-NH-12-X----NH-----12--X---------|
C|-12---------12-------------------|
E|---------------------------------|



D|------5t-------------------|
A|--3-------3t0--3t----------|
G|----------NH-----------NH--|
D|-----NH-X-12------NH-X-12--|
C|-NH--12-------NH--12-------|
E|-12-----------12-----------|



D|-------------------5t--3t--2t---0-|
A|----2t-------3t-------------------|
G|------------NH---------------NH---|
D|-------NH-X-12--------NH---X-12---|
C|-NH----12-------NH----12----------|
E|-12-------------12----------------|



D|------------------------------|
A|--3t5--7t---3t0-3t5--------NH-|
G|------NH-------------NH----12-|
D|-NH---12--X----NH----12--X----|
C|-12------------12-------------|
E|------------------------------|


                                  NH

D|--------------------------------12-|
A|----------NH-----5t---7t--8t-NH----|
G|-----NH---12---------NH------12----|
D|-NH--12-X----NH------12---X--------|
C|-12----------12--------------------|
E|-----------------------------------|



D|-10t-9t10--9t------------------------|
A|-----------------10t12-10t-----------|
G|-----------------NH---------------NH-|
D|-----------NH--X-12t---------NH-X-12-|
C|-NH-NH-----12t---------NH----12------|
E|-12-12t----------------12------------|



D|----------------9t7------------|
A|---------------------10t----8t-|
G|---------NH--------------NH----|
D|----NH-X-12------NH---X--12----|
C|-NH-12------NH---12------------|
E|-12---------12-----------------|



D|--------------------------|
A|--7t--8t---NH--7t------NH-|
G|------NH---12-----NH-X-12-|
D|-NH---12-X----NH--12------|
C|-12-----------12----------|
E|--------------------------|



D|---------------3t------0---------|
A|---------NH--------------NH--3t0-|
G|----NH---12--------NH----12------|
D|-NH-12-X----NH-----12--X---------|
C|-12---------12-------------------|
E|---------------------------------|



D|------5t-------------------|
A|--3-------3t0--3t----------|
G|----------NH-----------NH--|
D|-----NH-X-12------NH-X-12--|
C|-NH--12-------NH--12-------|
E|-12-----------12-----------|



D|-------------------5t--3t--2t---0-|
A|----2t-------3t-------------------|
G|------------NH---------------NH---|
D|-------NH-X-12--------NH---X-12---|
C|-NH----12-------NH----12----------|
E|-12-------------12----------------|



D|------------------------------|
A|--3t5--7t---3t0-3t5--------NH-|
G|------NH-------------NH----12-|
D|-NH---12--X----NH----12--X----|
C|-12------------12-------------|
E|------------------------------|



D|-----------------------------|
A|-----------NH-------------NH-|
G|------NH---12-------NH----12-|
D|-NH---12-X-----NH---12--X----|
C|-12------------12------------|
E|-----------------------------|



D|----9t----------------9t-------------|
A|-------10t---------------10t---------|
G|----------------NH----------------NH-|
D|-----------NH-X-12-----------NH-X-12-|
C|-NH--------12------NH--------12------|
E|-12----------------12----------------|



D|----9t----------------9t-------------|
A|-------10t---------------10t---------|
G|----------------NH----------------NH-|
D|-----------NH-X-12-----------NH-X-12-|
C|-NH--------12------NH--------12------|
E|-12----------------12----------------|



D|----7t---------------7t------------|
A|-------8t------NH-------8t------NH-|
G|----------NH---12----------NH---12-|
D|-NH-------12-X----NH-------12-X----|
C|-12---------------12---------------|
E|-----------------------------------|



D|----7t---------------7t------------|
A|-------8t------NH-------8t------NH-|
G|----------NH---12----------NH---12-|
D|-NH-------12-X----NH-------12-X----|
C|-12---------------12---------------|
E|-----------------------------------|



D|----9t----------------9t-------------|
A|-------10t---------------10t---------|
G|----------------NH----------------NH-|
D|-----------NH-X-12-----------NH-X-12-|
C|-NH--------12------NH--------12------|
E|-12----------------12----------------|



D|----9t----------------9t-------------|
A|-------10t---------------10t---------|
G|----------------NH----------------NH-|
D|-----------NH-X-12-----------NH-X-12-|
C|-NH--------12------NH--------12------|
E|-12----------------12----------------|



D|----7t---------------7t------------|
A|-------8t------NH-------8t------NH-|
G|----------NH---12----------NH---12-|
D|-NH-------12-X----NH-------12-X----|
C|-12---------------12---------------|
E|-----------------------------------|


D|----7t---------------7t------------|-----|
A|-------8t------NH-------8t------NH-|-----|
G|----------NH---12----------NH---12-|-----|
D|-NH-------12-X----NH-------12-X----|-----|
C|-12---------------12---------------|--NH-|
E|-----------------------------------|--12-|

TOP cifras de Andy Mckee

  1. Rylynn Intro
  2. I'll Be Over You(cover Toto)
  3. Hunter's Moon
  4. Art Of Motion
  5. Ebon Coast
  6. Layover
  7. For My Father
  8. Spirit of the West (part. Don Ross)
  9. Ebon Coast Intro
  10. Africa

Pela Web