Cifras Web
Andy Mckee

Samus Stardrive

Andy Mckee

13 acessos

(Afinar assim)

D5
A#4
F4
D#4
G3
C3

Obs.: Esse NH é o Natural Harmonic( Harmônico natural )

             NH    NH          

|---------NH-12-NH-12-NH-|
|---------12----12----12-|
|------------------------|  (4x)
|-----NH-----------------|
|--NH--12----------------|
|--12--------------------|

                             
           NH   NH         
|--------NH-7-NH-7-NH-| 
|--------7----7----7--|    
|---------------------|   (4x) 
|------NH-------------|       
|--NH--7--------------|    
|--7------------------|    


|--8-----------8----|-7-----------7-|
|-----7-----------7-|----7--------7-|
|--------7----------|-------7-------|
|-----------7-------|----------7----|
|-------------------|-0-------------|
|--0----------------|---------------|



|--5-----------5-|-3-----------0----|-8--------10-------|
|-----5--------5-|----0-----0-----0-|----7--------------|
|--------5-------|-------4----------|-------7---------7-|
|-----------4----|------------------|--------------7----|
|----------------|-0----------------|-------------------|
|--0-------------|------------------|-0-----------------|



|--7--------7h8-------|-5--------7-------|-0--3--------3----|
|---------------------|----5-------------|----------0-------|
|-----7---------------|-------5-----5----|-------4--------0-|
|--------7------7-----|----------------2-|------------------|
|--0---------------10-|------------------|-0----------------|
|---------------------|-0----------------|------------------|



|-----------3------|----------------3-----3-|----------1---------1h5-|
|-------4--4-------|-------------4----------|-------2--2------2------|
|-----5----------5-|----------5-------------|----3---------3---------|
|------------------|-4-----4----------------|------------------------|
|--0---------------|----0--------------0----|-1----------------------|
|------------------|------------------------|------------------------|



|--1---------1-|-------------3-|-----3h7--3-|
|--------0-----|----------4--4-|---4--------|
|-----3--------|--------5------|-5----------|
|--------------|-X-------------|------------|
|--------------|-X--0-3--------|------------|
|--------------|-X-------------|------------|



|--------0--X----|----------0-----|------|
|-----------X----|-------0------0-|------|
|--5h7-----------|----0-----------|-0----|
|----------------|----------------|----0-|
|----------------|----------------|------|
|--------------0-|-3--------------|------|



|--8-----------8----|-7-----------7-|
|-----7-----------7-|----7--------7-|
|--------7----------|-------7-------|
|-----------7-------|----------7----|
|-------------------|-0-------------|
|--0----------------|---------------|



|--5-----------5-|-3-----------0----|-8--------10-------|
|-----5--------5-|----0-----0-----0-|----7--------------|
|--------5-------|-------4----------|-------7---------7-|
|-----------4----|------------------|--------------7----|
|----------------|-0----------------|-------------------|
|--0-------------|------------------|-0-----------------|



|--7--------7h8-------|-5--------7-------|-0--3--------3----|
|---------------------|----5-------------|----------0-------|
|-----7---------------|-------5-----5----|-------4--------0-|
|--------7------7-----|----------------2-|------------------|
|--0---------------10-|------------------|-0----------------|
|---------------------|-0----------------|------------------|



|-----------3------|----------------3-----3-|----------1---------1h5-|
|--------4--4------|-------------4----------|-------2--2------2------|
|-----5----------5-|----------5-------------|----3---------3---------|
|------------------|-4-----4----------------|------------------------|
|--0---------------|----0--------------0----|-1----------------------|
|------------------|------------------------|------------------------|



|--1---------1-|-------------3-|-----3h7--3-|
|--------0-----|----------4--4-|---4--------|
|-----3--------|--------5------|-5----------|
|--------------|-X-------------|------------|
|--------------|-X--0-3--------|------------|
|--------------|-X-------------|------------|



|--------0--X----|----------0-----|------|
|-----------X----|-------0------0-|------|
|--5h7-----------|----0-----------|-0----|
|----------------|----------------|----0-|
|----------------|----------------|------|
|--------------0-|-3--------------|------|



|--------8-----8----|-------8-----8----|-------8-----8----|
|-----8-----8-----8-|----8-----8-----8-|----8-----8-----8-|
|--------8-----8----|-------8-----8----|-------8-----8----|
|-----8-----8-----8-|----8-----8-----8-|----8-----8-----8-|
|--8----------------|-8----------------|-8----------------|
|-------------------|------------------|------------------|



|--------8-----8----|-------7-----7----|-------7-----7----|
|-----8-----8-----8-|----7-----7-----7-|----7-----7-----7-|
|--------8-----8----|-------7-----7----|-------7-----7----|
|-----8-----8-----8-|----7-----7-----7-|----7-----7-----7-|
|--8----------------|------------------|-7----------------|
|-------------------|-7----------------|------------------|



|--------7-----7----|-------7-----7----|-------8-----8----|
|-----7-----7-----7-|----7-----7-----7-|----8-----8-----8-|
|--------7-----7----|-------7-----7----|-------8-----8----|
|-----7-----7-----7-|----7-----7-----7-|----8-----8-----8-|
|-------------------|-7----------------|-8----------------|
|--7----------------|------------------|------------------|



|--------8-----8----|-------8-----8----|-------8-----8----|
|-----8-----8-----8-|----8-----8-----8-|----8-----8-----8-|
|--------8-----8----|-------8-----8----|-------8-----8----|
|-----8-----8-----8-|----8-----8-----8-|----8-----8-----8-|
|--8----------------|-8----------------|-8----------------|
|-------------------|------------------|------------------|



|--------7-----7----|-------7-----7----|--------7----------|
|-----7-----7-----7-|----7-----7-----7-|------7----7-----7-|
|--------7-----7----|-------7-----7----|-------------------|
|-----7-----7-----7-|----7-----7-----7-|-------------------|
|-------------------|-7----------------|----7---------7----|
|--7----------------|------------------|-7-----------------|



|---------7----------|
|-------7----7-----7-|
|--------------------|
|--------------------|
|-----7---------7----|
|--7-----------------|


             NH    NH          
|---------NH-12-NH-12-NH-|
|---------12----12----12-| 
|------------------------|  (4x)
|------NH----------------| 
|--NH--12----------------| 
|--12--------------------| 
                             
           NH   NH         
|--------NH-7-NH-7-NH-|  
|--------7----7----7--|    
|---------------------|  (4x)   
|------NH-------------|   
|--NH--7--------------|    
|--7------------------|    


|--8-----------8----|-7-----------7-|
|-----7-----------7-|----7--------7-|
|--------7----------|-------7-------|
|-----------7-------|----------7----|
|-------------------|-0-------------|
|--0----------------|---------------|



|--5-----------5-|-3-----------0----|-8--------10-------|
|-----5--------5-|----0-----0-----0-|----7--------------|
|--------5-------|-------4----------|-------7---------7-|
|-----------4----|------------------|--------------7----|
|----------------|-0----------------|-------------------|
|--0-------------|------------------|-0-----------------|



|--7--------7h8-------|-5--------7-------|-0--3--------3----|
|---------------------|----5-------------|----------0-------|
|-----7---------------|-------5-----5----|-------4--------0-|
|--------7------7-----|----------------2-|------------------|
|--0---------------10-|------------------|-0----------------|
|---------------------|-0----------------|------------------|



|-----------3------|----------------3-----3-|----------1---------1h5-|
|--------4--4------|-------------4----------|-------2--2------2------|
|-----5----------5-|----------5-------------|----3---------3---------|
|------------------|-4-----4----------------|------------------------|
|--0---------------|----0--------------0----|-1----------------------|
|------------------|------------------------|------------------------|



|--1---------1-|-------------3-|-----3h7--3-|
|--------0-----|----------4--4-|---4--------|
|-----3--------|--------5------|-5----------|
|--------------|-X-------------|------------|
|--------------|-X--0-3--------|------------|
|--------------|-X-------------|------------|



|--------0--X----|----------0-----|------|
|-----------X----|-------0------0-|------|
|--5h7-----------|----0-----------|-0----|
|----------------|----------------|----0-|
|----------------|----------------|------|
|--------------0-|-3--------------|------|



|--------8-----8----|-------8-----8----|-------8-----8----|
|-----8-----8-----8-|----8-----8-----8-|----8-----8-----8-|
|--------8-----8----|-------8-----8----|-------8-----8----|
|-----8-----8-----8-|----8-----8-----8-|----8-----8-----8-|
|--8----------------|-8----------------|-8----------------|
|-------------------|------------------|------------------|



|--------8-----8----|-------7-----7----|-------7-----7----|
|-----8-----8-----8-|----7-----7-----7-|----7-----7-----7-|
|--------8-----8----|-------7-----7----|-------7-----7----|
|-----8-----8-----8-|----7-----7-----7-|----7-----7-----7-|
|--8----------------|------------------|-7----------------|
|-------------------|-7----------------|------------------|



|--------7-----7----|-------7-----7----|-------8-----8----|
|-----7-----7-----7-|----7-----7-----7-|----8-----8-----8-|
|--------7-----7----|-------7-----7----|-------8-----8----|
|-----7-----7-----7-|----7-----7-----7-|----8-----8-----8-|
|-------------------|-7----------------|-8----------------|
|--7----------------|------------------|------------------|



|--------8-----8----|-------8-----8----|-------8-----8----|
|-----8-----8-----8-|----8-----8-----8-|----8-----8-----8-|
|--------8-----8----|-------8-----8----|-------8-----8----|
|-----8-----8-----8-|----8-----8-----8-|----8-----8-----8-|
|--8----------------|-8----------------|-8----------------|
|-------------------|------------------|------------------|



|--------7-----7----|-------7-----7----|--------7----------|
|-----7-----7-----7-|----7-----7-----7-|------7----7-----7-|
|--------7-----7----|-------7-----7----|-------------------|
|-----7-----7-----7-|----7-----7-----7-|-------------------|
|-------------------|-7----------------|----7---------7----|
|--7----------------|------------------|-7-----------------|


                                NH
|---------7----------|-------NH--7-|
|-------7----7-----7-|---NH--7-----|
|--------------------|---7---------|
|--------------------|-------------|
|-----7---------7----|-NH----------|
|--7-----------------|-7-----------|

TOP cifras de Andy Mckee

  1. Rylynn Intro
  2. I'll Be Over You(cover Toto)
  3. Hunter's Moon
  4. Art Of Motion
  5. Ebon Coast
  6. Layover
  7. For My Father
  8. Spirit of the West (part. Don Ross)
  9. Ebon Coast Intro
  10. Africa

Pela Web