Cifras Web
Andy Mckee

Tight Trite Night

Andy Mckee

12 acessos


E|------x----------------------x-----------------|
B|------x----------------------x-----------------|
G|------x----------------------x-----------------|
D|------------x-x---x-0-2----x-------x-x---x-0-2-|
A|--------0-2--------------------0-2-------------|
E|--0-0-----------x-------0--------------x-------|


Obs1.: Esse "AH” é um Artificial Harmonic (harmônico artificial).

                            AH

|-------x--------------------7------0-|
|-------x--------------------7------0-|
|-------x--------------------7--------|
|-----x-------x-x---x-0-2-------------|
|---------0-2-------------------------|
|--0--------------x-------0-------x---|



|------------0----------------------x-----------------|
|----------0------------------------x-----------------|
|--------0--------------------------x-----------------|
|------2-----------x-x---x-0-2----x-------x-x---x-0-2-|
|----2---------0-2--------------------0-2-------------|
|--0---------x---------x-------0--------------x-------|


                            AH

|-------x--------------------7------3-|
|-------x--------------------7------0-|
|-------x--------------------7--------|
|-----x-------x-x---x-0-2-------------|
|---------0-2-------------------------|
|--0--------------x-------0-------x---|



|------------3----------0h2---2-2-------------0-|
|----------0--------------------0-------3-------|
|--------4--------------0h2-----2-------------0-|
|------0------------x---------------0-4---4-----|
|--------------0-2------------------------------|
|--0---------x--------x-----0---x-x---------x---|



|------------0----------------------x-----0---3-|
|----------0------------------------x-----0---0-|
|--------0--------------------------x-----------|
|------2-----------x-x---x-0-2----x-------------|
|----2---------0-2--------------------0-2-------|
|--0---------x---------x-------0------------x---|



|------------3----------0h2---2-2-------------0-|
|----------0--------------------0-------3-------|
|--------4--------------0h2-----2-------------0-|
|------0------------x---------------0-4---4-----|
|--------------0-2------------------------------|
|--0---------x--------x-----0---x-x---------x---|

 

|------------0----------------------x---------3-|
|----------0------------------------x-----------|
|--------0--------------------------x-----------|
|------2-----------x-x---x-0-2----x-------0---2-|
|----2---------0-2--------------------0-2-------|
|--0---------x---------x-------0------------x---|



|------------3-------------0-0---0-------0-0---2-|
|----------0-------------3---3---3-------2-2-----|
|--------0-------------0-----------------------0-|
|------2-------------2---------------------------|
|--0---------x-0-2-3-------x-3---3---0-2-2-2-----|
|----------------------------------x---------x---|



|------------2----------------------x---------3-|
|----------0------------------------x-----------|
|--------0--------------------------x-----------|
|------2-----------x-x---x-0-2----x-------0---2-|
|----2---------0-2--------------------0-2-------|
|--0---------x---------x-------0------------x---|



|------------3-------------0-------x-------x-2-|
|----------0-------------3---3---3-x-2---2-x---|
|--------0-------------0-----3---3-x-2---2-x-0-|
|------2-------------2-------------------------|
|--0---------x-0-2-3-------x---3-3-----2-------|
|----------------------------------------------|



|------------2----------------------x-----------------|
|----------0------------------------x-----------------|
|--------0--------------------------x-----------------|
|------2-----------x-x---x-0-2----x-------x-x---x-0-2-|
|----2---------0-2--------------------0-2-------------|
|--0---------x---------x-------0--------------x-------|


                            AH

|-------x--------------------7-------3-|
|-------x--------------------7---------|
|-------x--------------------7---------|
|-----x-------x-x---x-0-2--------------|
|---------0-2--------------------------|
|--0--------------x-------0-----0--x---|



|------------3----------0h2---2-2-------------0-|
|----------0--------------------x-------3-------|
|--------4--------------0h2-----2-------------0-|
|------0------------x---------------0-4---4-----|
|--------------0-2------------------------------|
|--0---------x--------x-----0---x-x---------x---|



|------------0----------------------x-----0---3-|
|----------0------------------------x-----0---0-|
|--------0--------------------------x-----------|
|------2-----------x-x---x-0-2----x-------------|
|----2---------0-2--------------------0-2-------|
|--0---------x---------x-------0------------x---|



|------------3----------0h2---2-2-------------0-|
|----------0--------------------x-------3-------|
|--------4--------------0h2-----2-------------0-|
|------0------------x---------------0-4---4-----|
|--------------0-2------------------------------|
|--0---------x--------x-----0---x-x---------x---|



|------------0----------------------x---------3-|
|----------0------------------------x-----------|
|--------0--------------------------x-----------|
|------2-----------x-x---x-0-2----x-------0---2-|
|----2---------0-2--------------------0-2-------|
|--0---------x---------x-------0------------x---|



|------------3-------------0---2-2-----0-0---2-|
|----------0-------------3-----3-3-----2-2-----|
|--------0-------------0---------------------0-|
|------2-------------2-------------------------|
|--0---------x-0-2-3-------x-3-------2---------|
|----------------------------------x-------x---|



|------------2----------------------x---------3-|
|----------0------------------------x-----------|
|--------0--------------------------x-----------|
|------2-----------x-x---x-0-2----x-------0---2-|
|----2---------0-2--------------------0-2-------|
|--0---------x---------x-------0------------x---|



|------------3-------------0-2---2---0---0---2-|
|----------0-------------3---3---3---2---2-----|
|--------0-------------0---------------------0-|
|------2-------------2-------------------------|
|--0---------x-0-2-3-------x---3-------2-------|
|----------------------------------x-------x---|



|------------2----------------------x-----------|
|----------0------------------------x-----------|
|--------0--------------------------x-----------|
|------2-----------x-x---x-0-2----x-------x-----|
|----2---------0-2--------------------0-2-------|
|--0---------x---------x-------0------------3/8-|



|---------------x-------10-------0-----0-----|
|--8-------5----x-7h8------------8-----8-----|
|--9-------5----x----------------7-----7-----|
|-------------x------------------------------|
|----------------------------------7-----7---|
|----x-x-x-5------8---x----x-0-0-----0-----0-|


                                     AH

|-----------------x-------10---10----12--0-|
|----8-------5----x-7h8--------10----12--0-|
|----9-------5----x------------11----12----|
|---------------x--------------------------|
|----------------------------------------x-|
|--8---x-x-x-5------8---x----x---0-------x-|



|--7-------5------7--7-------0---------0-|------x-------x--------3--3-x-0-|
|--8-------5------8--8-------8-------8---|----3-x---3---x-3---3--3--3-x---|
|-----x-------x--------------7-----7-----|----0-x---2---x-2---2--2--2-x-0-|
|----------------------------------------|----------------1---1-----------|
|------------------------5-7-7---7-------|----------------2---2-----------|
|--8----x--5----x-7--7-x-------0---------|-3------2-------0---x--1--1---0-|



|---0----------------------x-----------------|
|---0----------------------x-----------------|
|---0----------------------x-----------------|
|---2-----x-x---x-0-2----x-------x-x---x-0-2-|
|---2-0-2--------------------0-2-------------|
|---0---------x-------0--------------x-------|



                            AH

|-------x--------------------7------3-|
|-------x--------------------7--------|
|-------x--------------------7--------|
|-----x-------x-x---x-0-2-------------|
|---------0-2-------------------------|
|--0--------------x-------0-------x---|



|------------3----------0h2---2-2-------------0-|
|----------0--------------------0-------3-------|
|--------4--------------0h2-----2-------------0-|
|------0------------x---------------0-4---4-----|
|--------------0-2------------------------------|
|--0---------x--------x-----0---x-x---------x---|



|------------0---------------------x-----0---3-|
|----------0-----------------------x-----0---0-|
|--------0-------------------------x-----------|
|------2-----------x-x---x-2~----x-------------|
|----2---------0-2-------------------0-2-------|
|--0---------x---------x------0------------x---|



|------------3----------0h2---2-2-------------0-|
|----------0--------------------0-------3-------|
|--------4--------------0h2-----2-------------0-|
|------0------------x---------------0-4---4-----|
|--------------0-2------------------------------|
|--0---------x--------x-----0---x-x---------x---|

 

|------------0----------------------x---------3-|
|----------0------------------------x-----------|
|--------0--------------------------x-----------|
|------2-----------x-x---x-0-2----x-------0---2-|
|----2---------0-2--------------------0-2-------|
|--0---------x---------x-------0------------x---|



|------------3-------------0-2---2---0--0---2-|
|----------0-------------3---3---3---2--2-----|
|--------0-------------0--------------------0-|
|------2-------------2------------------------|
|--0---------x-0-2-3-------x---3-----2--2-----|
|----------------------------------x------x---|



|------------2----------------------x---------3-|
|----------0------------------------x-----------|
|--------0--------------------------x-----------|
|------2-----------x-x---x-0-2----x-------0---2-|
|----2---------0-2--------------------0-2-------|
|--0---------x---------x-------0------------x---|



|------------3-------------0---2-------0-----2-|
|----------0-------------3-----3-------2-------|
|--------0-------------0---------------------0-|
|------2-------------2-------------------------|
|--0---------x-0-2-3-------x-3---3---2---2-----|
|----------------------------------x-------x---|



|------------2----------------------x----------|
|----------0------------------------x----------|
|--------0--------------------------x----------|
|------2-----------x-x---x-0-2----x------------|
|----2---------0-2--------------------x-2------|
|--0---------x---------x-------0----------3/8--|



|---------------x-------10-------0-----0-----|
|--8-------5----x-7h8------------8-----8-----|
|--9-------5----x----------------7-----7-----|
|-------------x------------------------------|
|----------------------------------7-----7---|
|----x-x-x-5------8----0---x-0-0-----0-----0-|


                                     AH

|-----------------x-------10---10----12--0-|
|----8-------5----x-7h8--------10----12--0-|
|----9-------5----x------------11----12--0-|
|---------------x--------------------------|
|----------------------------x-----------x-|
|--8---x-x-x-5------8---0----x-----0-----x-|



|--7-------5------7--7-------0---------0-|------x----------------3--3-x-0-|
|--8-------5------8--8-------8-------8---|----3-x---3-----3---3--3--3-x---|
|-----x-------x--------------7-----7-----|----0-x---2-----2---2--2--2-x-0-|
|----------------------------------------|----------------1---1-----------|
|------------------------5-7-7---7-------|------------3-2-2---2-----------|
|--8----x--5----x-7--7-x-------0---------|-3------2-------0---x--1--1---0-|



|---0----------------------x-----------------|
|---0----------------------x-----------------|
|---0----------------------x-----------------|
|---2-----x-x---x-0-2----x-------x-x---x-0-2-|
|---2-0-2--------------------0-2-------------|
|---0---------x-------0--------------x-------|



|-------x----------------------x-------x-12-|
|-------x----------------------x-------x-12-|
|-------x----------------------x-------x-12-|
|-----x-------x-x---x-0-2----x-------0------|
|---------0-2--------------------0-2--------|
|--0--------------x-------0-----------------|



|----12-x-10---10-x-8---8-8---------7-7-x-7-|
|----12-x------12-x---------------0---0-x---|
|----12-x---------x-9---9-9-----7-----7-x-7-|
|-------------------------0---0-------0-----|
|---------------------0---------------------|
|--0---------x------------------------------|



|----5-x---3-0-3-0---0-----0------0-0-x-12-|
|------x-------------------0------0-0-x-12-|
|----5-x-5-----------0-----0----0---0-x-12-|
|------------------4-------2----2---2------|
|------------------------2-2--2-----2------|
|--0-------------------0---0--0-----0------|



|----12-x-10---10-x-8---8-8---------7-7-x-7-|
|----12-x------12-x---------------0---0-x---|
|----12-x---------x-9---9-9-----7-----7-x-7-|
|-------------------------0---0-------0-----|
|---------------------0---------------------|
|--0---------x------------------------------|



|----------12-----7------5------3------2--0--x-----|
|-----------x-----x------x------x------x--0--x-----|
|-------11------7------5------4------2----0--x-----|
|--------0------0------0------0------0----0--x-----|
|-----0-------0------0------0------0------0--x-----|
|--0--------------------------------------0--x-3/8-|



|---------------x--------10-------0-----0-----|
|--8-------5----x-7h8-------------8-----8-----|
|--9-------5----x-----------------7-----7-----|
|-------------x-------------------------------|
|-----------------------------------7-----7---|
|----x-x-x-5------8----0----x-0-0-----0-----0-|


                                   AH

|-----------------x------10---10---12--0-|
|----8-------5----x-7h8-------10---12--0-|
|----9-------5----x-----------11---12--0-|
|---------------x------------------------|
|---------------------------x----------x-|
|--8---x-x-x-5------8--0----x-----0----x-|



|--7-------5------7--7-------0---------0-|------x-----------------3--3---0-|
|--8-------5------8--8-------8-------8---|----3-x---3-----3-------3--3---0-|
|-----x-------x--------------7-----7-----|----0-x---2-----2-------2--2---0-|
|----------------------------------------|----------------1----------------|
|------------------------5-7-7---7-------|------------3-2-2----------------|
|--8----x--5----x-7--7-x-------0---------|-3------2-------0---x-0-1--1---0-|



|-----0----------------------x-----------------|
|-----0----------------------x-----------------|
|-----0----------------------x-----------------|
|-----2-----x-x---x-0-2----x-------x-x---x-0-2-|
|-----2-0-2--------------------0-2-------------|
|-----0---------x-------0--------------x-------|



|-------x----------------------x-----------------|
|-------x----------------------x-----------------|
|-------x----------------------x-----------------|
|-----x-------x-x---x-0-2----x-------x-x---x-0-2-|
|---------0-2--------------------0-2-------------|
|--0--------------x-------0--------------x-------|



|-------x----------------------x-----------------|
|-------x----------------------x-----------------|
|-------x----------------------x-----------------|
|-----x-------x-x---x-0-2----x-------x-x---x-0-2-|
|---------0-2--------------------0-2-------------|
|--0--------------x-------0--------------x-------|


                            AH

|-------x--------------------7-------3-|
|-------x--------------------7-------0-|
|-------x--------------------7---------|
|-----x-------x-x---x-0-2--------------|
|---------0-2--------------------------|
|--0--------------x-------0-----0--x---|



|------------3------------0h2---2-2-------------0-|
|----------0-x--------------------0-------3-------|
|--------4---x------------0h2-----2-------------0-|
|------0-----x--------x---------------0-4---4-----|
|----------------0-2------------------------------|
|--0---------x----------x-----0---x-x---------x---|



|------------0---------x---------x-----0-x-3-|
|----------0-x---------x---------x-------x---|
|--------0---x---------x---------x-----0-x---|
|------2-----x-------x---2b----x-------------|
|----2-------x---0-2---------------0-2-------|
|--0---------x--------------0----------------|



|------------3----------0h2---2-2-------------0-|
|----------0-x------------------0-------3-------|
|--------4---x----------0h2-----2-------------0-|
|------0-----x------x---------------0-4---4-----|
|--------------0-2------------------------------|
|--0---------x--------x-----0---x-x---------x---|



|------------0-------x---------x-----0-x-3-|
|----------0-x-------x---------x-------x---|
|--------0---x-------x---------x-----0-x---|
|------2-----x-----x---2b----x-----------2-|
|----2-------x-0-2---------------0-2-------|
|--0---------x------------0----------------|

 

|------------3-----0-----2-------0-------2-|
|----------0-x---------------------2-------|
|--------0---x-------------4-2-------2---0-|
|------2-----x-----------------------------|
|--0---------x-0-2-3-----3-------2---------|
|------------x---------x-------x-------x---|



|------------2-------x---------x-----0-x-3-|
|----------0-x-------x---------x-------x---|
|--------0---x-------x---------x-----0-x-2-|
|------2-----x-----0---2b----x-------------|
|----2-------x-0-2---------------0-2-------|
|--0---------x------------0----------------|



|----3-----------0---0-----0---0-----2-|----2---2-------x---------x-----x-----|
|----------------3---3-----2---2-----0-|----0---0-------x---------x-----x-----|
|--------------------------------------|--------0-------x---------x-----x-----|
|----2-------0-------------------------|--------------0---2b----x-------------|
|--0-----0-2-------3---------2---------|----------0-2---------------0-2-------|
|------x-------x---------x---------x---|--0------------------0------------3/8-|



|-------------------10---------------------|
|---8---5---5-7h8------------8---8---------|
|---9---5---5----------------7---7---------|
|------------------------------------------|
|------------------------7-----7-----7-----|
|---x---5-5---8---0--------0-----------0---|


                                         AH

|-------------------x-------10---10------12----|
|----8---------5----x-7h8--------10------12----|
|----9---------5----x------------11------12----|
|-----------------x----------------------------|
|--------7---------------------x-------------x-|
|--x-------0-x-5------8---0----x-----0-------x-|



|--7-----5---0-x----7-x-0-----0-x-|-------x-------x--------3--3-x-0-|
|--8-8-x-------x-8--8-x-8-----8-x-|-----3-x---3-3-x-3---3--3--3-x-0-|
|----9-x-------x-7----x-7-----7-x-|-----0-x---2-2-x-2---2--2--2-x-0-|
|------x--------------------------|-----------------1---1-----------|
|---------------------------7-7---|-------------3---2---2-----------|
|--8-8---5-x-5---7--------0-------|--3------2-------0---0--1--x---0-|



|-----0----------------------x-----------------|
|-----0----------------------x-----------------|
|-----0----------------------x-----------------|
|-----2-----x-x---x-0-2----x-------x-x---x-0-2-|
|-----2-0-2--------------------0-2-------------|
|-----0---------x-------0--------------x-------|



|-------x----------------------x-----------------|
|-------x----------------------x-----------------|
|-------x----------------------x-----------------|
|-----x-------x-x---x-0-2----x-------x-x---x-0-2-|
|---------0-2--------------------0-2-------------|
|--0--------------x-------0--------------x-------|



|-------x----------------------x-----------------|
|-------x----------------------x-----------------|
|-------x----------------------x-----------------|
|-----x-------x-x---x-0-2----x-------x-x---x-0-2-|
|---------0-2--------------------0-2-------------|
|--0--------------x-------0--------------x-------|


|-------x----------------------------||
|-------x----------------------------||
|-------x----------------------------||
|-----x-------x-x---x-0-2------------||
|---------0-2-------------2----------||
|--0--------------x-------0----------||

TOP cifras de Andy Mckee

  1. Rylynn Intro
  2. I'll Be Over You(cover Toto)
  3. Hunter's Moon
  4. Art Of Motion
  5. Ebon Coast
  6. Layover
  7. For My Father
  8. Spirit of the West (part. Don Ross)
  9. Ebon Coast Intro
  10. Africa

Pela Web