Cifras Web
Andy Mckee

When She Cries

Andy Mckee

14 acessos

Afinação: CGDGBC                                                                     
(Afinar assim)
                                                                    
C5
B4
G4
D4
G3
C3


C|--4-------------------0--|--------------------------|
B|--3--------3p0-----------|-----0--------------------|
G|--0--0----------0--------|--------0--------0--------|
D|--------5----------0-----|-----------2-----------0--|
G|-------------------------|--2-----------2-----------|
C|--0----------------------|--------------------------|



|------------------------|-------------------------|
|------------------------|-------------------------|
|--0h2-----2----0-----0--|-----2----2-----0-----0--|
|-------0----------0-----|--------0-----------0----|
|------------------------|--0-----------0----------|
|--5---------5-----------|-------------------------|



|------------2--0-----|-----------------0--------|
|------------------0--|-----------1--------------|
|---------------------|--------0--------------0--|
|--0--2---------------|-----2--------------------|
|--0------------------|--2-----------2-----------|
|--0------0-----------|--------------------------|



|---------0---------|------------|
|-------------------|------------|
|--0h2/4-----4~--0--|------------|
|-------------------|-------0h2--|
|------------0------|------------|
|--5----------------|------------|



|---------------------------|------------------0--------|
|---------------------------|-----------3~--------0-----|
|-----------0---------------|--------0---------------0--|
|--------------3p2p0--------|-----0---------------------|
|--------0-------------4/5--|---------------------------|
|--0------------------------|--4------------4-----------|



|-----------------0--------|---------0---------|
|-----------1--------------|-------------------|
|--------0--------------0--|--0h2/4-----4~--0--|
|-----2--------------------|-------------------|
|--2-----------------------|------------0------|
|--------------------------|--5----------------|




|------------2--0--7--|-----2--0-----------------|
|---------------------|--------------0-----------|
|---------------------|-----------7-----0-----2--|
|--0--2---------------|--------------------------|
|--0------------------|--2-----------------------|
|--0------0-----------|--------------------------|



|-----------------0-----------|-----------------|
|-------------1------1--------|-----------------|
|-----------2--------------0--|-----------0-----|
|---------3-------------3-----|--------3--------|
|--3--------------------------|-----0-----------|
|-----------------------------|--5--------------|



|------------2--0-7t--|
|---------------------|
|---------------------|
|--0--2---------------|
|--0------------------|
|--0------0-----------|



|-----2--0------------------|
|---------------0-----------|
|-----------7t-----0-----2--|
|---------------------------|
|--2------------------------|
|---------------------------|



|----------------0---7t--|---------------0---7t--|
|------------0-----------|------------0----------|
|---------2--------------|---------2-------------|
|------2-----------------|------2----------------|
|--2---------------------|--0--------------------|
|------------------------|-----------------------|



|-----------------------|-------------------------|
|------------5----------|---------0h1p0-----------|
|---------0-----0---7t--|----------------0-----2--|
|------3----------------|-------------------2-----|
|-----------------------|-------------0-----------|
|--5t-------------------|--5t---------------------|



|---------------0---7t--|---------------0---7t--|
|------------0----------|------------0----------|
|---------2-------------|---------2-------------|
|------2----------------|------2----------------|
|--2--------------------|--0--------------------|
|-----------------------|-----------------------|



|----------------------|-------0-------|
|-----------5----------|-------5-------|
|--------0-----0---7t--|-------0-------|
|-----3----------------|-------3-------|
|----------------------|-------x-------|
|--5t------------------|--5t---5----0--|



|--0-----4t-----------0-----|
|---------------------------|
|-----7t-----0-----------7--|
|---------------x-----------|
|---------------x-----------|
|--2------------x--2--------|



|--4-----------0-----4t----|--0-----------------0-----|
|--------------------------|---------5----------------|
|-----0-----------7t----0--|-----7t-----0---------7t--|
|--------x-----------------|---------------x----------|
|--------x-----------------|---------------x----------|
|--------x--2--------------|--5------------x--5-------|



|---------------0------4t-----|--2------4t-----------2------|
|--5t-------------------------|-----------------------------|
|------0-----------7t------0--|-----7t------0-----------7t--|
|---------x-------------------|----------------x------------|
|---------x-------------------|----------------x------------|
|---------x--5----------------|--0-------------x--0---------|



|--4-----------2------4-----|--2------4t-----------2------|
|---------------------------|-----------------------------|
|-----0-----------7t-----0--|-----7t------0-----------7t--|
|--------x------------------|----------------x------------|
|--------x------------------|----------------x------------|
|--------x--0---------------|--0-------------x--0---------|



|--4-----------2------4-----|
|---------------------------|
|-----0-----------7t-----0--|
|--------x------------------|
|--------x------------------|
|--------x--0---------------|



|--0-----4t-----------0------|
|----------------------------|
|-----7t-----0-----------7t--|
|---------------x------------|
|---------------x------------|
|--2------------x--2---------|



|--4t-----------0------4t-----|--0------------------0------|
|-----------------------------|---------5------------------|
|------0-----------7t------0--|-----7t-----0-----------7t--|
|---------x-------------------|---------------x------------|
|---------x-------------------|---------------x------------|
|---------x--2----------------|--5------------x--5---------|



|---------------0------4t-----|--2------4-----------2------|
|--5t-------------------------|----------------------------|
|------0-----------7t------0--|-----7t-----0-----------7t--|
|---------x-------------------|---------------x------------|
|---------x-------------------|---------------x------------|
|---------x--5----------------|--0------------x--0---------|



|--4-----------2------4-----|--2-----4t-----0------------|
|---------------------------|------------------1p0-------|
|-----0-----------7t-----0--|-----7t-----0----------2h0--|
|--------x------------------|----------------------------|
|--------x------------------|----------------------------|
|--------x--0---------------|--0-------------------------|



|--4-------------------0--|
|--3--------3p0-----------|
|--0--0----------0--------|
|--------5----------0-----|
|-------------------------|
|--0----------------------|



|--------------------------|-------------------------|
|-----0--------------------|-------------------------|
|--------0--------0--------|--0h2-----2-----0-----0--|
|-----------2-----------0--|-------0-----------0-----|
|--2-----------2-----------|-------------------------|
|--------------------------|--5----------5-----------|



|--------------------------|-----------2--0-----|
|--------------------------|-----------------0--|
|-----2-----2-----0-----0--|--------------------|
|--------0-----------0-----|--0--2--------------|
|--0-----------0-----------|--0-----------------|
|--------------------------|--0------0----------|



|-----------------0------|---------0----------|
|-----------1------------|--------------------|
|--------0------------0--|--0h2/4-----4~---0--|
|-----2------------------|--------------------|
|--2-----------2---------|------------0-------|
|------------------------|--5-----------------|



|-----------------------------|
|-----------------------------|
|--------------0--------------|
|--0h2------------3p2p0-------|
|-----------0------------4/5--|
|--------0--------------------|

  

|------------------0--------|-----------------0-----|
|-----------3~--------0-----|-----------1-----------|
|--------0---------------0--|--------0-----------0--|
|-----0---------------------|-----2-----------------|
|---------------------------|--2-----------2--------|
|--4------------4-----------|-----------------------|



|---------0---------|------------2--0--7t--|
|-------------------|----------------------|
|--0h2/4-----4~--0--|----------------------|
|-------------------|--0--2----------------|
|------------0------|--0-------------------|
|--5----------------|--0------0------------|



|-----2--0------------------|-------------0-----------|
|---------------0-----------|----------1-----1--------|
|-----------7t-----0-----2--|--------2-------------0--|
|---------------------------|------3------------3-----|
|--2------------------------|--3----------------------|
|---------------------------|-------------------------|



|----------------|------------2--0--7t--|
|----------------|----------------------|
|-----------0----|----------------------|
|--------3-------|--0--2----------------|
|-----0----------|--0-------------------|
|--5-------------|--0------0------------|



|-----2--0------------------|---------------0---7--|
|---------------0-----------|------------0---------|
|-----------7t-----0-----2--|---------2------------|
|---------------------------|------2---------------|
|--2------------------------|--2-------------------|
|---------------------------|----------------------|



|---------------0---7--|------------------------|
|------------0---------|-------------5----------|
|---------2------------|----------0-----0---7t--|
|------2---------------|-------3----------------|
|--0-------------------|------------------------|
|----------------------|--5t--------------------|



|----------------------|---------------0---7--|
|------0h1p0-----------|------------0---------|
|-------------0-----2--|---------2------------|
|----------------2-----|------2---------------|
|----------0-----------|--2-------------------|
|--5t------------------|----------------------|



|---------------0---7--|----------------------|-------0-------|
|------------0---------|------------5---------|-------5-------|
|---------2------------|--------0-----0---7t--|-------0-------|
|------2---------------|------3---------------|-------3-------|
|--0-------------------|----------------------|-------x-------|
|----------------------|--5t------------------|--5t---5----0--|




|--0------4t-----------0------|
|-----------------------------|
|-----7t------0-----------7t--|
|----------------x------------|
|----------------x------------|
|--2-------------x--2---------|



|--4t----------0-----4t-----|--0------------------0------|
|---------------------------|---------5------------------|
|-----0-----------7t-----0--|-----7t-----0-----------7t--|
|---------x-----------------|---------------x------------|
|---------x-----------------|---------------x------------|
|---------x--2--------------|--5------------x--5---------|



|---------------0------4t-----|--2------4t-----------2-----|
|--5t-------------------------|----------------------------|
|------0-----------7t------0--|-----7t-----0-----------7t--|
|---------x-------------------|----------------x-----------|
|---------x-------------------|----------------x-----------|
|---------x--5----------------|--0-------------x--0--------|

                

|--4-----------2------4-----|--2------4t-----------2------|
|---------------------------|-----------------------------|
|-----0-----------7t-----0--|-----7t------0-----------7t--|
|--------x------------------|----------------x------------|
|--------x------------------|----------------x------------|
|--------x--0---------------|--0-------------x--0---------|



|--4-----------2------4-----|
|---------------------------|
|-----0-----------7t-----0--|
|--------x------------------|
|--------x------------------|
|--------x--0---------------|



|--0------4t----------0-----|
|---------------------------|
|-----7t-----0----------7t--|
|---------------x-----------|
|---------------x-----------|



|--2------------x--2--------|



|--4t-----------0-----4t-----|--0------------------0------|
|----------------------------|---------5------------------|
|------0-----------7t-----0--|-----7t-----0-----------7t--|
|---------x------------------|---------------x------------|
|---------x------------------|---------------x------------|
|---------x--2---------------|--5------------x--5---------|



|---------------0-----4t-----|--2------4t-----------2------|
|--5t------------------------|-----------------------------|
|------0-----------7t-----0--|-----7t------0-----------7t--|
|---------x------------------|----------------x------------|
|---------x------------------|----------------x------------|
|---------x--5---------------|--0-------------x--0---------|

 

|--4-----------2------4-----|--2-----4t-----0------------|
|---------------------------|------------------1p0-------|
|-----0-----------7t-----0--|-----7------0----------2h0--|
|--------x------------------|----------------------------|
|--------x------------------|----------------------------|
|--------x--0---------------|--0-------------------------|


Obs1.: A parte da tab (02:20) tem que prestar atenção porque
é a parte rápida.


                    (02:20)

|-----------------|----0-0---0-0---0-0---0-0---0-0---0-0-|
|-----------------|--------------------------------------|
|--0--------------|--------------0-----------0-----------|
|------0---2---5--|--------5-----------5-----------5-----|
|-----------------|--2-----------------------------------|
|-----------------|--------------------------------------|



|----0-0---0-0---0-0---0-0---0-0---0-0-|----0-0---0-0---0-0---0-0---0-0---0-0-|
|--------------------------------------|--------------------------------------|
|--------------0-----------0-----------|--------------0-----------0-----------|
|--------5-----------5-----------5-----|--------2-----------2-----------2-----|
|--2-----------------------------------|--2-----------------------------------|
|--------------------------------------|--------------------------------------|



|----0-0---0-0---0-0---0-0---0-0---0-0-|----0-0---0-0---0-0---0-0---0-0---0-0-|
|--------------------------------------|--------------------------------------|
|--------------0-----------0-----------|--------------0-----------0-----------|
|--------2-----------2-----------2-----|--------5-----------5-----------5-----|
|--2-----------------------------------|--2-----------------------------------|
|--------------------------------------|--------------------------------------|



|----0-0---0-0---0-0---0-0---0-0---0-0-|----0-0---0-0---0-0---0-0---0-0---0-0-|
|--------------------------------------|--------------------------------------|
|--------------0-----------0-----------|--------------0-----------0-----------|
|--------5-----------5-----------5-----|--------2-----------2-----------2-----|
|--2-----------------------------------|--2-----------------------------------|
|--------------------------------------|--------------------------------------|



|----0-0---0-0---0-0---0-0---0-0---0-0-|----0-0---0-0---0-0---0-0---0-0---0-0-|
|--------------------------------------|--------------------------------------|
|--------------0-----------------------|--------------4-----------------------|
|--------2-----------------2-----------|--------5-----------------5-----------|
|--2-----------------------------0-----|--2-----------------------------0-----|
|--------------------4-----------------|--------------------4-----------------|



|----0-0---0-0---0-0---0-0---0-0---0-0-|----0-0---0-0---0-0---0-0---0-0---0-0-|
|--------------------------------------|--------------------------------------|
|--------------4-----------------------|--------------0-----------------------|
|--------5-----------------5-----------|--------2-----------------2-----------|
|--2-----------------------------0-----|--2-----------------------------0-----|
|--------------------4-----------------|--------------------4-----------------|



|----0-0---0-0---0-0---0-0---0-0---0-0-|----0-0---0-0---0-0---0-0---0-0---0-0-|
|--------------------------------------|--------------------------------------|
|--------------0-----------------------|--------------4-----------------------|
|--------2-----------------2-----------|--------5-----------------5-----------|
|--2-----------------------------0-----|--2-----------------------------0-----|
|--------------------4-----------------|--------------------4-----------------|



|----0-0---0-0---0-0---0-0---0-0---0-0-|----0-0---0-0---0-0---0-0---0-0---0-0-|
|--------------------------------------|--------------------------------------|
|--------------4-----------------------|--------------0-----------------------|
|--------5-----------------5-----------|--------2-----------------2-----------|
|--2-----------------------------0-----|--2-----------------------------0-----|
|--------------------4-----------------|--------------------4-----------------|



|----0-0---0-0---0-0---0-0---0-0---0-0-|--------------------------------------|
|--------------------------------------|----5-5---5-5---5-5---5-5---5-5---5-5-|
|--------------0-----------------------|--------------0-----------0-----------|
|--------2-----------------2-----------|--------5-----------5-----------5-----|
|--2-----------------------------------|--------------------------------------|
|--------------------4-----------0-----|--2-----------------------------------|



|--------------------------------------|----0-0---0-0---0-0---0-0---0-0---0-0-|
|----3-3---3-3---3-3---3-3---3-3---3-3-|--------------------------------------|
|--------------0-----------0-----------|--------------0-----------0-----------|
|--------5-----------5-----------5-----|--------5-----------5-----------5-----|
|--------------------------------------|--------------------------------------|
|--4-----------------------------------|--5-----------------------------------|

 

|----0-0---0-0---0-0---0-0---0-0---0-0-|----0-0---0-0---0-0---0-0---0-0---0-0-|
|--------------------------------------|--------------------------------------|
|--------------0-----------0-----------|--------------0-----------------------|
|--------2-----------0-----------0-----|--------0-----------------0-----------|
|--0-----------------------------------|--5-----------------4-----------0-----|
|--------------------------------------|--------------------------------------|



|----0-0---0-0---0-0---0-0---0-0---0-0-|----0-0---0-0---0-0---0-0---0-0---0-0-|
|--------------------------------------|--------------------------------------|
|--------------4-----------------------|--------------4-----------------------|
|--------5-----------------5-----------|--------5-----------------5-----------|
|--2-----------------------------0-----|--2-----------------------------0-----|
|--------------------4-----------------|--------------------4-----------------|



|----0-0---0-0---0-0---0-0---0-0---0-0-|----0-0---0-0---0-0---0-0---0-0---0-0-|
|--------------------------------------|--------------------------------------|
|--------------0-----------------------|--------------0-----------------------|
|--------2-----------------2-----------|--------2-----------------2-----------|
|--2-----------------------------0-----|--2-----------------------------0-----|
|--------------------4-----------------|--------------------4-----------------|



|----0-0---0-0---0-0---0-0---0-0---0-0-|----0-0---0-0---0-0---0-0---0-0---0-0-|
|--------------------------------------|--------------------------------------|
|--------------4-----------------------|--------------4-----------------------|
|--------5-----------------5-----------|--------5-----------------5-----------|
|--2-----------------------------0-----|--2-----------------------------0-----|
|--------------------4-----------------|--------------------4-----------------|



|----0-0---0-0---0-0---0-0---0-0---0-0-|----0-0---0-0---0-0---0-0---0-0---0-0-|
|--------------------------------------|--------------------------------------|
|--------------0-----------------------|--------------0-----------------------|
|--------2-----------------2-----------|--------2-----------------2-----------|
|--2-----------------------------0-----|--2-----------------------------------|
|--------------------4-----------------|--------------------4-----------0-----|



|--------------------------------------|--------------------------------------|
|----5-5---5-5---5-5---5-5---5-5---5-5-|----3-3---3-3---3-3---3-3---3-3---3-3-|
|--------------0-----------0-----------|--------------0-----------0-----------|
|--------5-----------5-----------5-----|--------5-----------5-----------5-----|
|--------------------------------------|--------------------------------------|
|--2-----------------------------------|--4-----------------------------------|



|----0-0---0-0---0-0---0-0---0-0---0-0-|----0-0---0-0---0-0---0-0---0-0---0-0-|
|--------------------------------------|--------------------------------------|
|--------------0-----------0-----------|--------------0-----------0-----------|
|--------5-----------5-----------5-----|--------2-----------0-----------0-----|
|--------------------------------------|--0-----------------------------------|
|--5-----------------------------------|--------------------------------------|



|----0-0---0-0---0-0----|
|-----------------------|
|--------------0--------|
|--------0--------------|
|--5-----------------4--|
|-----------------------|


Obs2.: Na parte (03:17) volta ao normal.

 (03:17)

|--4-------------------0--|--------------------------|
|--3--------3p0-----------|-----0--------------------|
|--0--0----------0--------|--------0--------0--------|
|--------5----------0-----|-----------2-----------0--|
|-------------------------|--2-----------2-----------|
|--0----------------------|--------------------------|



|-------------------------|--------------------------|
|-------------------------|--------------------------|
|--0h2-----2-----0-----0--|-----2-----2-----0-----0--|
|-------0-----------0-----|--------0-----------0-----|
|-------------------------|--0-----------0-----------|
|--5----------5-----------|--------------------------|



|------------2--0-----|-----------------0------|
|------------------0--|-----------1------------|
|---------------------|--------0------------0--|
|--0--2---------------|-----2------------------|
|--0------------------|--2-----------2---------|
|--0------0-----------|------------------------|


|---------0----------|
|--------------------|
|--0h2/4-----4~---0--|
|--------------------|
|------------0-------|
|--5-----------------|

TOP cifras de Andy Mckee

  1. Rylynn Intro
  2. I'll Be Over You(cover Toto)
  3. Hunter's Moon
  4. Art Of Motion
  5. Ebon Coast
  6. Layover
  7. For My Father
  8. Spirit of the West (part. Don Ross)
  9. Ebon Coast Intro
  10. Africa

Pela Web