Cifras Web
Cute Is What We Aim For

Sweet Talk 101 Intro

Cute Is What We Aim For

7 acessos

Sweet Talk 101

Hey everyone, I finally figured out how to play the awkward chords in the beginning of 
song... The rest of the song is very hard to tab so I'll start by giving you all the intro.



-------------------------------------------------------------------------

Intro

   1 + 2 + 3 + 4 +   1 + 2 + 3 + 4 +   1 + 2 + 3 + 4 +   1 + 2 + 3 + 4 +

E|-----------------|-----------------|-----------------|-----------------|
B|-----------------|-----------------|-----------------|-----------------|
G|-----------------|-----------------|-----------------|-----------------|
D|-----------------|-----------------|-----------------|-----------------|
A|-----------------|-----------------|-----------------|-----------------|
E|-----------------|-----------------|-----------------|-----------------|

 |
 |
 | 1 + 2 + 3 + 4 +   1 + 2 + 3 + 4 +   1 + 2 + 3 + 4 +   1 + 2 + 3 + 4 +

E|-----------------|-----------------|-----------------|-----------------|
B|-----------------|-----------------|-----------------|-----------------|
G|-6-6---6-6-6---7-|-7-7---7-7-7---6-|-6-6---6-6-6---7-|-7-7---7-7-7-7-7-|
D|-7-7---7-7-7---7-|-7-7---7-7-7---7-|-7-7---7-7-7---7-|-7-7---7-7-7-7-7-|
A|-0-0---0-0-0---7-|-7-7---7-7-7---4-|-4-4---4-4-4---5-|-5-5---5-5-5-5-5-|
E|-----------------|-----------------|-----------------|-----------------|


   1 + 2 + 3 + 4 +   1 + 2 + 3 + 4 +   1 + 2 + 3 + 4 +   1 + 2 + 3 + 4 +

E|-5-------5-----4-|---------4-----5-|---------5-----7-|---------7-----5-|
B|-----5-------5---|-----5-------5---|-----5-------5---|-----5-------5---|
G|-----------------|-----------------|-----------------|-----------------|
D|-----------------|-----------------|-----------------|-----------------|
A|-----------------|-----------------|-----------------|-----------------|
E|-----------------|-----------------|-----------------|-----------------|

 |
 |
 | 1 + 2 + 3 + 4 +   1 + 2 + 3 + 4 +   1 + 2 + 3 + 4 +   1 + 2 + 3 + 4 +

E|-----------------|-----------------|-----------------|-----------------|
B|-----------------|-----------------|-----------------|-----------------|
G|-6-6---6-6-6---7-|-7-7---7-7-7---6-|-6-6---6-6-6---7-|-7-7---7-7-7---7-|
D|-7-7---7-7-7---7-|-7-7---7-7-7---7-|-7-7---7-7-7---7-|-7-7---7-7-7---7-|
A|-0-0---0-0-0---7-|-7-7---7-7-7---4-|-4-4---4-4-4---5-|-5-5---5-5-5---5-|
E|-----------------|-----------------|-----------------|-----------------|


   1 + 2 + 3 + 4 +   1 + 2 + 3 + 4 +   1 + 2 + 3 + 4 +   1 + 2 + 3 + 4 +

E|---------5-----4-|---------4-----5-|---------5-----7-|---------7-----5-|
B|-----5-------5---|-----5-------5---|-----5-------5---|-----5-------5---|
G|-----------------|-----------------|-----------------|-----------------|
D|-----------------|-----------------|-----------------|-----------------|
A|-----------------|-----------------|-----------------|-----------------|
E|-----------------|-----------------|-----------------|-----------------|

 |
 |
 | 1 + 2 + 3 + 4 +   1 + 2 + 3 + 4 +   1 + 2 + 3 + 4 +   1 + 2 + 3 + 4 +

E|-----------------|-----------------|-----------------|-----------------|
B|-----------------|-----------------|-----------------|-----------------|
G|-6-6---6-6-6---7-|-7-7---7-7-7---6-|-6-6---6-6-6---7-|-7-7---7-7-7---7-|
D|-7-7---7-7-7---7-|-7-7---7-7-7---7-|-7-7---7-7-7---7-|-7-7---7-7-7---7-|
A|-0-0---0-0-0---7-|-7-7---7-7-7---4-|-4-4---4-4-4---5-|-5-5---5-5-5---5-|
E|-----------------|-----------------|-----------------|-----------------|


   1 + 2 + 3 + 4 +   1 + 2 + 3 + 4 +   1 + 2 + 3 + 4 +   1 + 2 + 3 + 4 +

E|-5~--------------|-----------------|-----------------|-----------------|
B|-----------------|-----------------|-----------------|-----------------|
G|-----------------|-----------------|-----------------|-----------------|
D|-----------------|-----------------|-----------------|-----------------|
A|-----------------|-----------------|-----------------|-----------------|
E|-----------------|-----------------|-----------------|-----------------|

 |
 |
 | 1 + 2 + 3 + 4 +   1 + 2 + 3 + 4 +   1 + 2 + 3 + 4 +   1 + 2 + 3 + 4 +

E|-----------------|-----------------|-----------------|-----------------|
B|-----------------|-----------------|-----------------|-----------------|
G|-6---6---6---6---|-6---6---6---6---|-6---6---6---6h7h|-9~--------------|
D|-7---7---7---7---|-7---7---7---7---|-7---7---7---7---|-----------------|
A|-0~-(0)-(0)-(0)--|-----------------|-----------------|-----------------|
E|-----------------|-----------------|-----------------|-----------------|



There you go... if anyone is going to tab this song please use this as a guide... It's 
correct.

TOP cifras de Cute Is What We Aim For

  1. Fourth Drink Instinct Intro
  2. Fourth Drink Instict Intro
  3. Hip Hop At Ihop Intro
  4. Lyrical Lies
  5. Risque
  6. The Fourth Drink Instinct
  7. Finger Twist And Split
  8. Forth Drink Instinct Solo
  9. Hip Hop At Ihop
  10. Sweat The Battle Before The Battle Sweats You

Pela Web