Cifras Web
Gregorian Chant

Da Pacem

Gregorian Chant

14 acessos

From: Rick Kephart 

                                   DA PACEM

Tablature by Rick Kephart  http://*~rmk

"." after a note means hold. "/" means hammer-on. "\" means pull-off.

e|-----------------------|----------------------|--|
b|-----------------0-------------0-----------------|
g|*|
D|*|
A|------3------------------------------------------|
E|-------------------------------------------------|
---------------------------------------------------|   Da   pa-cem  Do-mi-ne   in di-e-bus  nos-tris:


e -------------------------------------|------------------------|
b ---------------------------------------------------------------|
g -----------------------0/2\0--2/3\*|
D --3--3--3\2--0---2--3-----------------------------3--3\*|
A ---------------------------------------------------------------|
E ---------------------------------------------------------------|

   qui-a  non  est a-li-us              qui pu-gnet pro no-bis


e ------------------------------|
b ------------------------------|
g -------------0----------------|
D --3--3--2/3-----3\*|
A ------------------------------|
E ------------------------------|


    ni-si tu   De-us   nos-ter.


Da pacem Domine      {give peace, Lord}
in diebus nostris    {in our days}
quia non est alius   {for there is no other}
qui pugnet pro nobis {who fights for us}
nisi tu Deus noster  {except You, our God}

TOP cifras de Gregorian Chant

  1. Regina Caeli
  2. Sanctus Xvii
  3. Kyrie Chant
  4. Da Pacem
  5. Salve Regina
  6. Credo 3
  7. Ave Regina

Pela Web